ISO-10303-21;
HEADER;
/* RV_Disc_D12mm_W4.3mm_P7.5mm.step 3D STEP model for use in ECAD systems
 * Copyright (C) 2018, kicad StepUp
 * 
 * This work is licensed under the [Creative Commons CC-BY-SA 4.0 License](https://creativecommons.org/licenses/by-sa/4.0/legalcode), 
 * with the following exception:
 * To the extent that the creation of electronic designs that use 'Licensed Material' can be considered to be 'Adapted Material', 
 * then the copyright holder waives article 3 of the license with respect to these designs and any generated files which use data provided 
 * as part of the 'Licensed Material'.
 * You are free to use the library data in your own projects without the obligation to share your project files under this or any other license agreement.
 * However, if you wish to redistribute these libraries, or parts thereof (including in modified form) as a collection then the exception above does not apply. 
 * Please refer to https://github.com/KiCad/kicad-packages3D/blob/master/LICENSE.md for further clarification of the exception.
 * Disclaimer of Warranties and Limitation of Liability.
 * These libraries are provided in the hope that they will be useful, but are provided without warranty of any kind, express or implied.
 * *USE 3D CAD DATA AT YOUR OWN RISK*
 * *DO NOT RELY UPON ANY INFORMATION FOUND HERE WITHOUT INDEPENDENT VERIFICATION.*
 * 
 */

FILE_DESCRIPTION(
/* description */ ('model of RV_Disc_D12mm_W4.3mm_P7.5mm'),
/* implementation_level */ '2;1');

FILE_NAME(
/* name */ 'RV_Disc_D12mm_W4.3mm_P7.5mm.step',
/* time_stamp */ '2018-11-11T20:33:50',
/* author */ ('kicad StepUp','ksu'),
/* organization */ ('FreeCAD'),
/* preprocessor_version */ 'OCC',
/* originating_system */ 'kicad StepUp',
/* authorisation */ '');

FILE_SCHEMA(('AUTOMOTIVE_DESIGN { 1 0 10303 214 1 1 1 1 }'));
ENDSEC;

DATA;
#1 = APPLICATION_PROTOCOL_DEFINITION('international standard',
'automotive_design',2000,#2);
#2 = APPLICATION_CONTEXT(
'core data for automotive mechanical design processes');
#3 = SHAPE_DEFINITION_REPRESENTATION(#4,#10);
#4 = PRODUCT_DEFINITION_SHAPE('','',#5);
#5 = PRODUCT_DEFINITION('design','',#6,#9);
#6 = PRODUCT_DEFINITION_FORMATION('','',#7);
#7 = PRODUCT('RV_Disc_D12mm_W43mm_P75mm','RV_Disc_D12mm_W43mm_P75mm','',
(#8));
#8 = PRODUCT_CONTEXT('',#2,'mechanical');
#9 = PRODUCT_DEFINITION_CONTEXT('part definition',#2,'design');
#10 = ADVANCED_BREP_SHAPE_REPRESENTATION('',(#11,#15),#404);
#11 = AXIS2_PLACEMENT_3D('',#12,#13,#14);
#12 = CARTESIAN_POINT('',(0.E+000,0.E+000,0.E+000));
#13 = DIRECTION('',(0.E+000,0.E+000,1.));
#14 = DIRECTION('',(1.,0.E+000,-0.E+000));
#15 = MANIFOLD_SOLID_BREP('',#16);
#16 = CLOSED_SHELL('',(#17,#50,#156,#264,#273,#299,#308,#334,#360,#386,
#395));
#17 = ADVANCED_FACE('',(#18),#45,.T.);
#18 = FACE_BOUND('',#19,.F.);
#19 = EDGE_LOOP('',(#20,#30,#37,#38));
#20 = ORIENTED_EDGE('',*,*,#21,.T.);
#21 = EDGE_CURVE('',#22,#24,#26,.T.);
#22 = VERTEX_POINT('',#23);
#23 = CARTESIAN_POINT('',(9.75,-0.89756097561,6.03));
#24 = VERTEX_POINT('',#25);
#25 = CARTESIAN_POINT('',(9.75,-1.00243902439,6.03));
#26 = LINE('',#27,#28);
#27 = CARTESIAN_POINT('',(9.75,1.2,6.03));
#28 = VECTOR('',#29,1.);
#29 = DIRECTION('',(0.E+000,-1.,0.E+000));
#30 = ORIENTED_EDGE('',*,*,#31,.T.);
#31 = EDGE_CURVE('',#24,#24,#32,.T.);
#32 = CIRCLE('',#33,6.);
#33 = AXIS2_PLACEMENT_3D('',#34,#35,#36);
#34 = CARTESIAN_POINT('',(3.75,-1.00243902439,6.03));
#35 = DIRECTION('',(-5.478200730701E-033,-1.,7.304267640935E-033));
#36 = DIRECTION('',(1.,-5.478200730701E-033,-2.553524459839E-033));
#37 = ORIENTED_EDGE('',*,*,#21,.F.);
#38 = ORIENTED_EDGE('',*,*,#39,.F.);
#39 = EDGE_CURVE('',#22,#22,#40,.T.);
#40 = CIRCLE('',#41,6.);
#41 = AXIS2_PLACEMENT_3D('',#42,#43,#44);
#42 = CARTESIAN_POINT('',(3.75,-0.89756097561,6.03));
#43 = DIRECTION('',(-5.478200730701E-033,-1.,7.304267640935E-033));
#44 = DIRECTION('',(1.,-5.478200730701E-033,2.553524459839E-033));
#45 = CYLINDRICAL_SURFACE('',#46,6.);
#46 = AXIS2_PLACEMENT_3D('',#47,#48,#49);
#47 = CARTESIAN_POINT('',(3.75,1.2,6.03));
#48 = DIRECTION('',(0.E+000,1.,0.E+000));
#49 = DIRECTION('',(1.,0.E+000,0.E+000));
#50 = ADVANCED_FACE('',(#51,#71),#151,.T.);
#51 = FACE_BOUND('',#52,.F.);
#52 = EDGE_LOOP('',(#53,#54,#63,#70));
#53 = ORIENTED_EDGE('',*,*,#39,.T.);
#54 = ORIENTED_EDGE('',*,*,#55,.T.);
#55 = EDGE_CURVE('',#22,#56,#58,.T.);
#56 = VERTEX_POINT('',#57);
#57 = CARTESIAN_POINT('',(7.65243902439,1.2,6.03));
#58 = CIRCLE('',#59,2.09756097561);
#59 = AXIS2_PLACEMENT_3D('',#60,#61,#62);
#60 = CARTESIAN_POINT('',(7.65243902439,-0.89756097561,6.03));
#61 = DIRECTION('',(-2.553524459839E-033,7.304267640935E-033,1.));
#62 = DIRECTION('',(1.,-5.478200730701E-033,2.553524459839E-033));
#63 = ORIENTED_EDGE('',*,*,#64,.F.);
#64 = EDGE_CURVE('',#56,#56,#65,.T.);
#65 = CIRCLE('',#66,3.90243902439);
#66 = AXIS2_PLACEMENT_3D('',#67,#68,#69);
#67 = CARTESIAN_POINT('',(3.75,1.2,6.03));
#68 = DIRECTION('',(-5.478200730701E-033,-1.,7.304267640935E-033));
#69 = DIRECTION('',(1.,-5.478200730701E-033,2.553524459839E-033));
#70 = ORIENTED_EDGE('',*,*,#55,.F.);
#71 = FACE_BOUND('',#72,.F.);
#72 = EDGE_LOOP('',(#73,#110));
#73 = ORIENTED_EDGE('',*,*,#74,.T.);
#74 = EDGE_CURVE('',#75,#77,#79,.T.);
#75 = VERTEX_POINT('',#76);
#76 = CARTESIAN_POINT('',(0.36,0.E+000,1.32598606792));
#77 = VERTEX_POINT('',#78);
#78 = CARTESIAN_POINT('',(-0.31597600404,-0.172508448694,1.795264318444)
);
#79 = B_SPLINE_CURVE_WITH_KNOTS('',8,(#80,#81,#82,#83,#84,#85,#86,#87,
#88,#89,#90,#91,#92,#93,#94,#95,#96,#97,#98,#99,#100,#101,#102,#103,
#104,#105,#106,#107,#108,#109),.UNSPECIFIED.,.F.,.F.,(9,7,7,7,9),(
0.E+000,0.174711204725,0.354224846692,0.797561148992,1.),
.UNSPECIFIED.);
#80 = CARTESIAN_POINT('',(0.36,-1.110223024625E-016,1.32598606792));
#81 = CARTESIAN_POINT('',(0.36,-2.030332032889E-002,1.314137593971));
#82 = CARTESIAN_POINT('',(0.35869132396,-4.083961770669E-002,
1.303482907568));
#83 = CARTESIAN_POINT('',(0.356021533732,-6.150923063739E-002,
1.294114918487));
#84 = CARTESIAN_POINT('',(0.351946350898,-8.219712312012E-002,
1.286122450879));
#85 = CARTESIAN_POINT('',(0.346435455797,-0.10277277456,1.279584699383)
);
#86 = CARTESIAN_POINT('',(0.339478175009,-0.123092361479,1.274565455058)
);
#87 = CARTESIAN_POINT('',(0.331089057286,-0.143003231035,1.271107101093)
);
#88 = CARTESIAN_POINT('',(0.311268904993,-0.182229921236,1.267289903539)
);
#89 = CARTESIAN_POINT('',(0.299757361469,-0.201520722982,1.267018251601)
);
#90 = CARTESIAN_POINT('',(0.286827418257,-0.220051651297,1.268427796896)
);
#91 = CARTESIAN_POINT('',(0.272555505509,-0.237664305034,1.271503277354)
);
#92 = CARTESIAN_POINT('',(0.257041182849,-0.254217590971,1.276200849087)
);
#93 = CARTESIAN_POINT('',(0.240402426939,-0.269590718018,1.282453195421)
);
#94 = CARTESIAN_POINT('',(0.222770796401,-0.283684896831,1.290174690326)
);
#95 = CARTESIAN_POINT('',(0.158636622589,-0.327884271766,1.321720513187)
);
#96 = CARTESIAN_POINT('',(0.107651016019,-0.351171639572,1.352599192993)
);
#97 = CARTESIAN_POINT('',(5.348552874284E-002,-0.364982196536,
1.390453252504));
#98 = CARTESIAN_POINT('',(-1.472505843878E-003,-0.369067262534,
1.433300980516));
#99 = CARTESIAN_POINT('',(-5.517324402583E-002,-0.363927399937,
1.479376999541));
#100 = CARTESIAN_POINT('',(-0.105996511512,-0.350468814856,
1.527214986989));
#101 = CARTESIAN_POINT('',(-0.152780764536,-0.329757381627,
1.575675488669));
#102 = CARTESIAN_POINT('',(-0.213820905907,-0.290513532908,
1.645897442598));
#103 = CARTESIAN_POINT('',(-0.231960925649,-0.276897884321,
1.667883966827));
#104 = CARTESIAN_POINT('',(-0.249029100899,-0.262056376856,
1.689768520804));
#105 = CARTESIAN_POINT('',(-0.264954742569,-0.246076099297,
1.711480877567));
#106 = CARTESIAN_POINT('',(-0.279672301996,-0.22904395586,1.732953748275
));
#107 = CARTESIAN_POINT('',(-0.293120318438,-0.211046944511,1.75412076749
));
#108 = CARTESIAN_POINT('',(-0.305240366582,-0.192172435303,
1.774914478468));
#109 = CARTESIAN_POINT('',(-0.31597600404,-0.172508448694,1.795264318444
));
#110 = ORIENTED_EDGE('',*,*,#111,.T.);
#111 = EDGE_CURVE('',#77,#75,#112,.T.);
#112 = B_SPLINE_CURVE_WITH_KNOTS('',7,(#113,#114,#115,#116,#117,#118,
#119,#120,#121,#122,#123,#124,#125,#126,#127,#128,#129,#130,#131,
#132,#133,#134,#135,#136,#137,#138,#139,#140,#141,#142,#143,#144,
#145,#146,#147,#148,#149,#150),.UNSPECIFIED.,.F.,.F.,(8,6,6,6,6,6,8)
,(0.E+000,0.210160958638,0.275294850694,0.382037940153,0.545468161453,
0.729363760411,1.),.UNSPECIFIED.);
#113 = CARTESIAN_POINT('',(-0.31597600404,-0.172508448694,1.795264318444
));
#114 = CARTESIAN_POINT('',(-0.334201392943,-0.139125819604,
1.829811288675));
#115 = CARTESIAN_POINT('',(-0.348342824274,-0.103440672447,1.86303176075
));
#116 = CARTESIAN_POINT('',(-0.358124458674,-6.589831087488E-002,
1.894579175953));
#117 = CARTESIAN_POINT('',(-0.363253890634,-2.698138478382E-002,
1.924034069474));
#118 = CARTESIAN_POINT('',(-0.363441960562,1.274959243326E-002,
1.95086324946));
#119 = CARTESIAN_POINT('',(-0.358437792962,5.262937124344E-002,
1.974392809476));
#120 = CARTESIAN_POINT('',(-0.34486864264,0.104037812832,1.999808167901)
);
#121 = CARTESIAN_POINT('',(-0.341144699519,0.116136932045,2.005423437203
));
#122 = CARTESIAN_POINT('',(-0.336903245214,0.128147449145,2.010615917206
));
#123 = CARTESIAN_POINT('',(-0.332141772127,0.140042520818,2.015359009001
));
#124 = CARTESIAN_POINT('',(-0.326859880367,0.151793395608,2.019625102861
));
#125 = CARTESIAN_POINT('',(-0.321059906878,0.163369702656,2.023386301249
));
#126 = CARTESIAN_POINT('',(-0.304402710063,0.193373249363,2.031906648435
));
#127 = CARTESIAN_POINT('',(-0.292679913608,0.211456071947,2.035769328656
));
#128 = CARTESIAN_POINT('',(-0.279606781927,0.228842679423,2.038080296899
));
#129 = CARTESIAN_POINT('',(-0.265237104352,0.245380414996,2.038723411732
));
#130 = CARTESIAN_POINT('',(-0.249657674347,0.260917395463,2.037603576492
));
#131 = CARTESIAN_POINT('',(-0.232991160541,0.275313257092,2.034663584755
));
#132 = CARTESIAN_POINT('',(-0.188454241951,0.308570109348,2.022615545124
));
#133 = CARTESIAN_POINT('',(-0.159315576399,0.325756309106,2.011055846397
));
#134 = CARTESIAN_POINT('',(-0.128552913709,0.339578791982,1.995217183097
));
#135 = CARTESIAN_POINT('',(-9.682810187513E-002,0.349834748836,
1.975384277011));
#136 = CARTESIAN_POINT('',(-6.477473127296E-002,0.356536753543,
1.952102098946));
#137 = CARTESIAN_POINT('',(-3.294781144527E-002,0.359838719243,
1.926048191239));
#138 = CARTESIAN_POINT('',(3.322272076769E-002,0.360171785262,
1.866303976109));
#139 = CARTESIAN_POINT('',(6.738488075287E-002,0.356365371795,
1.83206330666));
#140 = CARTESIAN_POINT('',(0.10023208855,0.348941088933,1.796034720715)
);
#141 = CARTESIAN_POINT('',(0.131477962656,0.338266285872,1.758953448577)
);
#142 = CARTESIAN_POINT('',(0.160939860678,0.324657045577,1.721410954804)
);
#143 = CARTESIAN_POINT('',(0.188489008543,0.308348184748,1.683853518888)
);
#144 = CARTESIAN_POINT('',(0.251551563995,0.261729242631,1.591868245239)
);
#145 = CARTESIAN_POINT('',(0.284592659726,0.228516565533,1.53798332333)
);
#146 = CARTESIAN_POINT('',(0.312735569867,0.190395246417,1.486167860125)
);
#147 = CARTESIAN_POINT('',(0.335324469314,0.14774701859,1.437601714428)
);
#148 = CARTESIAN_POINT('',(0.351453138644,0.101100610604,1.393670016729)
);
#149 = CARTESIAN_POINT('',(0.36,5.135416378446E-002,1.355954982455));
#150 = CARTESIAN_POINT('',(0.36,-1.110223024625E-016,1.32598606792));
#151 = TOROIDAL_SURFACE('',#152,3.90243902439,2.09756097561);
#152 = AXIS2_PLACEMENT_3D('',#153,#154,#155);
#153 = CARTESIAN_POINT('',(3.75,-0.89756097561,6.03));
#154 = DIRECTION('',(5.478200730701E-033,1.,-7.304267640935E-033));
#155 = DIRECTION('',(1.,-5.478200730701E-033,2.553524459839E-033));
#156 = ADVANCED_FACE('',(#157,#177),#259,.T.);
#157 = FACE_BOUND('',#158,.T.);
#158 = EDGE_LOOP('',(#159,#160,#169,#176));
#159 = ORIENTED_EDGE('',*,*,#31,.T.);
#160 = ORIENTED_EDGE('',*,*,#161,.T.);
#161 = EDGE_CURVE('',#24,#162,#164,.T.);
#162 = VERTEX_POINT('',#163);
#163 = CARTESIAN_POINT('',(7.65243902439,-3.1,6.03));
#164 = CIRCLE('',#165,2.09756097561);
#165 = AXIS2_PLACEMENT_3D('',#166,#167,#168);
#166 = CARTESIAN_POINT('',(7.65243902439,-1.00243902439,6.03));
#167 = DIRECTION('',(-2.553524459839E-033,-7.304267640935E-033,-1.));
#168 = DIRECTION('',(1.,-5.478200730701E-033,-2.553524459839E-033));
#169 = ORIENTED_EDGE('',*,*,#170,.F.);
#170 = EDGE_CURVE('',#162,#162,#171,.T.);
#171 = CIRCLE('',#172,3.90243902439);
#172 = AXIS2_PLACEMENT_3D('',#173,#174,#175);
#173 = CARTESIAN_POINT('',(3.75,-3.1,6.03));
#174 = DIRECTION('',(-5.478200730701E-033,-1.,7.304267640935E-033));
#175 = DIRECTION('',(1.,-5.478200730701E-033,-2.553524459839E-033));
#176 = ORIENTED_EDGE('',*,*,#161,.F.);
#177 = FACE_BOUND('',#178,.T.);
#178 = EDGE_LOOP('',(#179,#200));
#179 = ORIENTED_EDGE('',*,*,#180,.T.);
#180 = EDGE_CURVE('',#181,#183,#185,.T.);
#181 = VERTEX_POINT('',#182);
#182 = CARTESIAN_POINT('',(7.86,-1.9,1.940043145312));
#183 = VERTEX_POINT('',#184);
#184 = CARTESIAN_POINT('',(7.412356493606,-1.550831536666,1.369849520332
));
#185 = B_SPLINE_CURVE_WITH_KNOTS('',7,(#186,#187,#188,#189,#190,#191,
#192,#193,#194,#195,#196,#197,#198,#199),.UNSPECIFIED.,.F.,.F.,(8,6,
8),(0.E+000,0.46142215539,1.),.UNSPECIFIED.);
#186 = CARTESIAN_POINT('',(7.86,-1.9,1.940043145312));
#187 = CARTESIAN_POINT('',(7.86,-1.856741069808,1.911008200889));
#188 = CARTESIAN_POINT('',(7.853935598116,-1.814165801654,1.878457352212
));
#189 = CARTESIAN_POINT('',(7.842151119844,-1.773076470941,1.843212146183
));
#190 = CARTESIAN_POINT('',(7.825016971767,-1.734172264533,1.805898176047
));
#191 = CARTESIAN_POINT('',(7.802923755616,-1.698082988606,1.767022197646
));
#192 = CARTESIAN_POINT('',(7.776282817284,-1.665403027924,1.727036347262
));
#193 = CARTESIAN_POINT('',(7.709641919939,-1.603252844968,1.638945895271
));
#194 = CARTESIAN_POINT('',(7.668230462721,-1.575305253391,1.590704344245
));
#195 = CARTESIAN_POINT('',(7.621954663266,-1.553706073416,1.542272299177
));
#196 = CARTESIAN_POINT('',(7.571635839787,-1.539526469539,1.494506724833
));
#197 = CARTESIAN_POINT('',(7.518575070089,-1.533908190256,1.448650565752
));
#198 = CARTESIAN_POINT('',(7.464718063771,-1.537688449327,1.406472056897
));
#199 = CARTESIAN_POINT('',(7.412356493606,-1.550831536666,1.369849520332
));
#200 = ORIENTED_EDGE('',*,*,#201,.T.);
#201 = EDGE_CURVE('',#183,#181,#202,.T.);
#202 = B_SPLINE_CURVE_WITH_KNOTS('',7,(#203,#204,#205,#206,#207,#208,
#209,#210,#211,#212,#213,#214,#215,#216,#217,#218,#219,#220,#221,
#222,#223,#224,#225,#226,#227,#228,#229,#230,#231,#232,#233,#234,
#235,#236,#237,#238,#239,#240,#241,#242,#243,#244,#245,#246,#247,
#248,#249,#250,#251,#252,#253,#254,#255,#256,#257,#258),
.UNSPECIFIED.,.F.,.F.,(8,6,6,6,6,6,6,6,6,8),(0.E+000,
7.132135648326E-002,0.180225604226,0.283528901189,0.33887775012,
0.511172132266,0.663210587431,0.798811102598,0.912579560678,1.),
.UNSPECIFIED.);
#203 = CARTESIAN_POINT('',(7.412356493606,-1.550831536666,1.369849520332
));
#204 = CARTESIAN_POINT('',(7.395799871287,-1.554987354234,1.358269548525
));
#205 = CARTESIAN_POINT('',(7.379398435086,-1.560077836791,1.347249014334
));
#206 = CARTESIAN_POINT('',(7.363222279186,-1.566101225729,1.336844933966
));
#207 = CARTESIAN_POINT('',(7.347342761081,-1.57304817464,1.32711421289)
);
#208 = CARTESIAN_POINT('',(7.331831303078,-1.580901352715,1.318112386694
));
#209 = CARTESIAN_POINT('',(7.31675819379,-1.589635048145,1.309892361949)
);
#210 = CARTESIAN_POINT('',(7.279948587123,-1.613842543903,1.291220200048
));
#211 = CARTESIAN_POINT('',(7.25888077356,-1.630446538431,1.281871555664)
);
#212 = CARTESIAN_POINT('',(7.239241140563,-1.648898817304,1.274638201401
));
#213 = CARTESIAN_POINT('',(7.221265376357,-1.669019501373,1.269673287772
));
#214 = CARTESIAN_POINT('',(7.20515578177,-1.690577052834,1.267085333947)
);
#215 = CARTESIAN_POINT('',(7.191065600899,-1.713295153926,1.266921260628
));
#216 = CARTESIAN_POINT('',(7.167717768679,-1.759224950218,1.271262673557
));
#217 = CARTESIAN_POINT('',(7.158244423552,-1.782359863791,1.27552926272)
);
#218 = CARTESIAN_POINT('',(7.150739882548,-1.806014080892,1.28192571813)
);
#219 = CARTESIAN_POINT('',(7.145215820983,-1.829934821515,1.290370421447
));
#220 = CARTESIAN_POINT('',(7.14163473603,-1.853892642554,1.300741144354)
);
#221 = CARTESIAN_POINT('',(7.139925916612,-1.877690849889,1.312891746729
));
#222 = CARTESIAN_POINT('',(7.14004258838,-1.913742281659,1.334048982157)
);
#223 = CARTESIAN_POINT('',(7.140595652837,-1.926227592976,1.34189736345)
);
#224 = CARTESIAN_POINT('',(7.141647721748,-1.938596576142,1.35018989927)
);
#225 = CARTESIAN_POINT('',(7.143184287783,-1.950827521914,1.358903011765
));
#226 = CARTESIAN_POINT('',(7.145190205236,-1.962901236496,1.368013089521
));
#227 = CARTESIAN_POINT('',(7.147650202177,-1.974800861306,1.377496913111
));
#228 = CARTESIAN_POINT('',(7.159574227449,-2.022966117838,1.417947787171
));
#229 = CARTESIAN_POINT('',(7.172849905265,-2.057570773199,1.451950978411
));
#230 = CARTESIAN_POINT('',(7.18992482745,-2.089915997864,1.488683632739)
);
#231 = CARTESIAN_POINT('',(7.210387968306,-2.119718656861,1.527525564883
));
#232 = CARTESIAN_POINT('',(7.23389893127,-2.146766835833,1.567907920409)
);
#233 = CARTESIAN_POINT('',(7.260196698692,-2.17086019986,1.60929419656)
);
#234 = CARTESIAN_POINT('',(7.314580931336,-2.210176375321,1.688045064967
));
#235 = CARTESIAN_POINT('',(7.342060663955,-2.226085323432,1.725262920794
));
#236 = CARTESIAN_POINT('',(7.371408343342,-2.239325969561,1.762431993059
));
#237 = CARTESIAN_POINT('',(7.402497299729,-2.2496658092,1.799112158987)
);
#238 = CARTESIAN_POINT('',(7.435145810423,-2.256793465993,1.834720482729
));
#239 = CARTESIAN_POINT('',(7.469068853045,-2.26034926646,1.86853445617)
);
#240 = CARTESIAN_POINT('',(7.534828950468,-2.25964999162,1.927593516788)
);
#241 = CARTESIAN_POINT('',(7.566494923102,-2.256198224081,1.953370034806
));
#242 = CARTESIAN_POINT('',(7.598363500151,-2.249376435111,1.976377917363
));
#243 = CARTESIAN_POINT('',(7.629884959808,-2.239037718003,1.995953273577
));
#244 = CARTESIAN_POINT('',(7.660434505392,-2.225175356123,2.011566193255
));
#245 = CARTESIAN_POINT('',(7.689362440423,-2.207993604377,2.022942958053
));
#246 = CARTESIAN_POINT('',(7.738544772416,-2.171078414378,2.036095341935
));
#247 = CARTESIAN_POINT('',(7.759458674616,-2.152191575274,2.03912549808)
);
#248 = CARTESIAN_POINT('',(7.778518746278,-2.131502734721,2.039186617812
));
#249 = CARTESIAN_POINT('',(7.795493499557,-2.109320479061,2.0364360501)
);
#250 = CARTESIAN_POINT('',(7.810247728821,-2.085970006154,2.031113513448
));
#251 = CARTESIAN_POINT('',(7.822726918025,-2.061759807486,2.023485638365
));
#252 = CARTESIAN_POINT('',(7.840766206669,-2.01791041255,2.006373004985)
);
#253 = CARTESIAN_POINT('',(7.8472608978,-1.998507398729,1.99772587601));
#254 = CARTESIAN_POINT('',(7.852412791545,-1.978872115706,1.987981067447
));
#255 = CARTESIAN_POINT('',(7.856236391043,-1.959111914169,1.97724636034)
);
#256 = CARTESIAN_POINT('',(7.858755675172,-1.93932389508,1.965621301633)
);
#257 = CARTESIAN_POINT('',(7.859999999962,-1.919594649766,1.953194870607
));
#258 = CARTESIAN_POINT('',(7.86,-1.9,1.940043145312));
#259 = TOROIDAL_SURFACE('',#260,3.90243902439,2.09756097561);
#260 = AXIS2_PLACEMENT_3D('',#261,#262,#263);
#261 = CARTESIAN_POINT('',(3.75,-1.00243902439,6.03));
#262 = DIRECTION('',(-5.478200730701E-033,-1.,7.304267640935E-033));
#263 = DIRECTION('',(1.,-5.478200730701E-033,-2.553524459839E-033));
#264 = ADVANCED_FACE('',(#265),#268,.F.);
#265 = FACE_BOUND('',#266,.F.);
#266 = EDGE_LOOP('',(#267));
#267 = ORIENTED_EDGE('',*,*,#64,.T.);
#268 = PLANE('',#269);
#269 = AXIS2_PLACEMENT_3D('',#270,#271,#272);
#270 = CARTESIAN_POINT('',(3.75,1.2,6.03));
#271 = DIRECTION('',(-5.478200730701E-033,-1.,7.304267640935E-033));
#272 = DIRECTION('',(0.E+000,-7.304267640935E-033,-1.));
#273 = ADVANCED_FACE('',(#274),#294,.T.);
#274 = FACE_BOUND('',#275,.T.);
#275 = EDGE_LOOP('',(#276,#277,#285,#292,#293));
#276 = ORIENTED_EDGE('',*,*,#111,.T.);
#277 = ORIENTED_EDGE('',*,*,#278,.T.);
#278 = EDGE_CURVE('',#75,#279,#281,.T.);
#279 = VERTEX_POINT('',#280);
#280 = CARTESIAN_POINT('',(0.36,0.E+000,-2.856));
#281 = LINE('',#282,#283);
#282 = CARTESIAN_POINT('',(0.36,0.E+000,6.03));
#283 = VECTOR('',#284,1.);
#284 = DIRECTION('',(-0.E+000,-0.E+000,-1.));
#285 = ORIENTED_EDGE('',*,*,#286,.T.);
#286 = EDGE_CURVE('',#279,#279,#287,.T.);
#287 = CIRCLE('',#288,0.36);
#288 = AXIS2_PLACEMENT_3D('',#289,#290,#291);
#289 = CARTESIAN_POINT('',(0.E+000,0.E+000,-2.856));
#290 = DIRECTION('',(0.E+000,0.E+000,1.));
#291 = DIRECTION('',(1.,0.E+000,0.E+000));
#292 = ORIENTED_EDGE('',*,*,#278,.F.);
#293 = ORIENTED_EDGE('',*,*,#74,.T.);
#294 = CYLINDRICAL_SURFACE('',#295,0.36);
#295 = AXIS2_PLACEMENT_3D('',#296,#297,#298);
#296 = CARTESIAN_POINT('',(0.E+000,0.E+000,6.03));
#297 = DIRECTION('',(0.E+000,0.E+000,1.));
#298 = DIRECTION('',(1.,0.E+000,0.E+000));
#299 = ADVANCED_FACE('',(#300),#303,.T.);
#300 = FACE_BOUND('',#301,.T.);
#301 = EDGE_LOOP('',(#302));
#302 = ORIENTED_EDGE('',*,*,#170,.T.);
#303 = PLANE('',#304);
#304 = AXIS2_PLACEMENT_3D('',#305,#306,#307);
#305 = CARTESIAN_POINT('',(3.75,-3.1,6.03));
#306 = DIRECTION('',(-5.478200730701E-033,-1.,7.304267640935E-033));
#307 = DIRECTION('',(0.E+000,-7.304267640935E-033,-1.));
#308 = ADVANCED_FACE('',(#309),#329,.T.);
#309 = FACE_BOUND('',#310,.T.);
#310 = EDGE_LOOP('',(#311,#312,#320,#327,#328));
#311 = ORIENTED_EDGE('',*,*,#180,.F.);
#312 = ORIENTED_EDGE('',*,*,#313,.T.);
#313 = EDGE_CURVE('',#181,#314,#316,.T.);
#314 = VERTEX_POINT('',#315);
#315 = CARTESIAN_POINT('',(7.86,-1.9,-2.856));
#316 = LINE('',#317,#318);
#317 = CARTESIAN_POINT('',(7.86,-1.9,6.03));
#318 = VECTOR('',#319,1.);
#319 = DIRECTION('',(-0.E+000,-0.E+000,-1.));
#320 = ORIENTED_EDGE('',*,*,#321,.T.);
#321 = EDGE_CURVE('',#314,#314,#322,.T.);
#322 = CIRCLE('',#323,0.36);
#323 = AXIS2_PLACEMENT_3D('',#324,#325,#326);
#324 = CARTESIAN_POINT('',(7.5,-1.9,-2.856));
#325 = DIRECTION('',(0.E+000,0.E+000,1.));
#326 = DIRECTION('',(1.,0.E+000,0.E+000));
#327 = ORIENTED_EDGE('',*,*,#313,.F.);
#328 = ORIENTED_EDGE('',*,*,#201,.F.);
#329 = CYLINDRICAL_SURFACE('',#330,0.36);
#330 = AXIS2_PLACEMENT_3D('',#331,#332,#333);
#331 = CARTESIAN_POINT('',(7.5,-1.9,6.03));
#332 = DIRECTION('',(0.E+000,0.E+000,1.));
#333 = DIRECTION('',(1.,0.E+000,0.E+000));
#334 = ADVANCED_FACE('',(#335),#355,.T.);
#335 = FACE_BOUND('',#336,.F.);
#336 = EDGE_LOOP('',(#337,#346,#347,#348));
#337 = ORIENTED_EDGE('',*,*,#338,.F.);
#338 = EDGE_CURVE('',#279,#339,#341,.T.);
#339 = VERTEX_POINT('',#340);
#340 = CARTESIAN_POINT('',(0.216,0.E+000,-3.));
#341 = CIRCLE('',#342,0.144);
#342 = AXIS2_PLACEMENT_3D('',#343,#344,#345);
#343 = CARTESIAN_POINT('',(0.216,0.E+000,-2.856));
#344 = DIRECTION('',(-0.E+000,1.,0.E+000));
#345 = DIRECTION('',(1.,0.E+000,0.E+000));
#346 = ORIENTED_EDGE('',*,*,#286,.T.);
#347 = ORIENTED_EDGE('',*,*,#338,.T.);
#348 = ORIENTED_EDGE('',*,*,#349,.F.);
#349 = EDGE_CURVE('',#339,#339,#350,.T.);
#350 = CIRCLE('',#351,0.216);
#351 = AXIS2_PLACEMENT_3D('',#352,#353,#354);
#352 = CARTESIAN_POINT('',(0.E+000,0.E+000,-3.));
#353 = DIRECTION('',(0.E+000,0.E+000,1.));
#354 = DIRECTION('',(1.,0.E+000,0.E+000));
#355 = TOROIDAL_SURFACE('',#356,0.216,0.144);
#356 = AXIS2_PLACEMENT_3D('',#357,#358,#359);
#357 = CARTESIAN_POINT('',(0.E+000,0.E+000,-2.856));
#358 = DIRECTION('',(-0.E+000,-0.E+000,-1.));
#359 = DIRECTION('',(1.,0.E+000,0.E+000));
#360 = ADVANCED_FACE('',(#361),#381,.T.);
#361 = FACE_BOUND('',#362,.F.);
#362 = EDGE_LOOP('',(#363,#372,#373,#374));
#363 = ORIENTED_EDGE('',*,*,#364,.F.);
#364 = EDGE_CURVE('',#314,#365,#367,.T.);
#365 = VERTEX_POINT('',#366);
#366 = CARTESIAN_POINT('',(7.716,-1.9,-3.));
#367 = CIRCLE('',#368,0.144);
#368 = AXIS2_PLACEMENT_3D('',#369,#370,#371);
#369 = CARTESIAN_POINT('',(7.716,-1.9,-2.856));
#370 = DIRECTION('',(-0.E+000,1.,0.E+000));
#371 = DIRECTION('',(1.,0.E+000,0.E+000));
#372 = ORIENTED_EDGE('',*,*,#321,.T.);
#373 = ORIENTED_EDGE('',*,*,#364,.T.);
#374 = ORIENTED_EDGE('',*,*,#375,.F.);
#375 = EDGE_CURVE('',#365,#365,#376,.T.);
#376 = CIRCLE('',#377,0.216);
#377 = AXIS2_PLACEMENT_3D('',#378,#379,#380);
#378 = CARTESIAN_POINT('',(7.5,-1.9,-3.));
#379 = DIRECTION('',(0.E+000,0.E+000,1.));
#380 = DIRECTION('',(1.,0.E+000,0.E+000));
#381 = TOROIDAL_SURFACE('',#382,0.216,0.144);
#382 = AXIS2_PLACEMENT_3D('',#383,#384,#385);
#383 = CARTESIAN_POINT('',(7.5,-1.9,-2.856));
#384 = DIRECTION('',(-0.E+000,-0.E+000,-1.));
#385 = DIRECTION('',(1.,0.E+000,0.E+000));
#386 = ADVANCED_FACE('',(#387),#390,.F.);
#387 = FACE_BOUND('',#388,.F.);
#388 = EDGE_LOOP('',(#389));
#389 = ORIENTED_EDGE('',*,*,#349,.T.);
#390 = PLANE('',#391);
#391 = AXIS2_PLACEMENT_3D('',#392,#393,#394);
#392 = CARTESIAN_POINT('',(-1.483767504926E-017,1.497958850874E-017,-3.)
);
#393 = DIRECTION('',(0.E+000,0.E+000,1.));
#394 = DIRECTION('',(1.,0.E+000,0.E+000));
#395 = ADVANCED_FACE('',(#396),#399,.F.);
#396 = FACE_BOUND('',#397,.F.);
#397 = EDGE_LOOP('',(#398));
#398 = ORIENTED_EDGE('',*,*,#375,.T.);
#399 = PLANE('',#400);
#400 = AXIS2_PLACEMENT_3D('',#401,#402,#403);
#401 = CARTESIAN_POINT('',(7.5,-1.9,-3.));
#402 = DIRECTION('',(0.E+000,0.E+000,1.));
#403 = DIRECTION('',(1.,0.E+000,0.E+000));
#404 = ( GEOMETRIC_REPRESENTATION_CONTEXT(3)
GLOBAL_UNCERTAINTY_ASSIGNED_CONTEXT((#408)) GLOBAL_UNIT_ASSIGNED_CONTEXT
((#405,#406,#407)) REPRESENTATION_CONTEXT('Context #1',
'3D Context with UNIT and UNCERTAINTY') );
#405 = ( LENGTH_UNIT() NAMED_UNIT(*) SI_UNIT(.MILLI.,.METRE.) );
#406 = ( NAMED_UNIT(*) PLANE_ANGLE_UNIT() SI_UNIT($,.RADIAN.) );
#407 = ( NAMED_UNIT(*) SI_UNIT($,.STERADIAN.) SOLID_ANGLE_UNIT() );
#408 = UNCERTAINTY_MEASURE_WITH_UNIT(LENGTH_MEASURE(1.E-007),#405,
'distance_accuracy_value','confusion accuracy');
#409 = PRODUCT_RELATED_PRODUCT_CATEGORY('part',$,(#7));
#410 = MECHANICAL_DESIGN_GEOMETRIC_PRESENTATION_REPRESENTATION('',(#411,
#419,#426,#433,#440,#448,#455,#462,#469,#476,#483),#404);
#411 = STYLED_ITEM('color',(#412),#17);
#412 = PRESENTATION_STYLE_ASSIGNMENT((#413));
#413 = SURFACE_STYLE_USAGE(.BOTH.,#414);
#414 = SURFACE_SIDE_STYLE('',(#415));
#415 = SURFACE_STYLE_FILL_AREA(#416);
#416 = FILL_AREA_STYLE('',(#417));
#417 = FILL_AREA_STYLE_COLOUR('',#418);
#418 = COLOUR_RGB('',0.136999994516,0.402000010014,0.726999998093);
#419 = STYLED_ITEM('color',(#420),#50);
#420 = PRESENTATION_STYLE_ASSIGNMENT((#421));
#421 = SURFACE_STYLE_USAGE(.BOTH.,#422);
#422 = SURFACE_SIDE_STYLE('',(#423));
#423 = SURFACE_STYLE_FILL_AREA(#424);
#424 = FILL_AREA_STYLE('',(#425));
#425 = FILL_AREA_STYLE_COLOUR('',#418);
#426 = STYLED_ITEM('color',(#427),#156);
#427 = PRESENTATION_STYLE_ASSIGNMENT((#428));
#428 = SURFACE_STYLE_USAGE(.BOTH.,#429);
#429 = SURFACE_SIDE_STYLE('',(#430));
#430 = SURFACE_STYLE_FILL_AREA(#431);
#431 = FILL_AREA_STYLE('',(#432));
#432 = FILL_AREA_STYLE_COLOUR('',#418);
#433 = STYLED_ITEM('color',(#434),#264);
#434 = PRESENTATION_STYLE_ASSIGNMENT((#435));
#435 = SURFACE_STYLE_USAGE(.BOTH.,#436);
#436 = SURFACE_SIDE_STYLE('',(#437));
#437 = SURFACE_STYLE_FILL_AREA(#438);
#438 = FILL_AREA_STYLE('',(#439));
#439 = FILL_AREA_STYLE_COLOUR('',#418);
#440 = STYLED_ITEM('color',(#441),#273);
#441 = PRESENTATION_STYLE_ASSIGNMENT((#442));
#442 = SURFACE_STYLE_USAGE(.BOTH.,#443);
#443 = SURFACE_SIDE_STYLE('',(#444));
#444 = SURFACE_STYLE_FILL_AREA(#445);
#445 = FILL_AREA_STYLE('',(#446));
#446 = FILL_AREA_STYLE_COLOUR('',#447);
#447 = COLOUR_RGB('',0.824000000954,0.819999992847,0.78100001812);
#448 = STYLED_ITEM('color',(#449),#299);
#449 = PRESENTATION_STYLE_ASSIGNMENT((#450));
#450 = SURFACE_STYLE_USAGE(.BOTH.,#451);
#451 = SURFACE_SIDE_STYLE('',(#452));
#452 = SURFACE_STYLE_FILL_AREA(#453);
#453 = FILL_AREA_STYLE('',(#454));
#454 = FILL_AREA_STYLE_COLOUR('',#418);
#455 = STYLED_ITEM('color',(#456),#308);
#456 = PRESENTATION_STYLE_ASSIGNMENT((#457));
#457 = SURFACE_STYLE_USAGE(.BOTH.,#458);
#458 = SURFACE_SIDE_STYLE('',(#459));
#459 = SURFACE_STYLE_FILL_AREA(#460);
#460 = FILL_AREA_STYLE('',(#461));
#461 = FILL_AREA_STYLE_COLOUR('',#447);
#462 = STYLED_ITEM('color',(#463),#334);
#463 = PRESENTATION_STYLE_ASSIGNMENT((#464));
#464 = SURFACE_STYLE_USAGE(.BOTH.,#465);
#465 = SURFACE_SIDE_STYLE('',(#466));
#466 = SURFACE_STYLE_FILL_AREA(#467);
#467 = FILL_AREA_STYLE('',(#468));
#468 = FILL_AREA_STYLE_COLOUR('',#447);
#469 = STYLED_ITEM('color',(#470),#360);
#470 = PRESENTATION_STYLE_ASSIGNMENT((#471));
#471 = SURFACE_STYLE_USAGE(.BOTH.,#472);
#472 = SURFACE_SIDE_STYLE('',(#473));
#473 = SURFACE_STYLE_FILL_AREA(#474);
#474 = FILL_AREA_STYLE('',(#475));
#475 = FILL_AREA_STYLE_COLOUR('',#447);
#476 = STYLED_ITEM('color',(#477),#386);
#477 = PRESENTATION_STYLE_ASSIGNMENT((#478));
#478 = SURFACE_STYLE_USAGE(.BOTH.,#479);
#479 = SURFACE_SIDE_STYLE('',(#480));
#480 = SURFACE_STYLE_FILL_AREA(#481);
#481 = FILL_AREA_STYLE('',(#482));
#482 = FILL_AREA_STYLE_COLOUR('',#447);
#483 = STYLED_ITEM('color',(#484),#395);
#484 = PRESENTATION_STYLE_ASSIGNMENT((#485));
#485 = SURFACE_STYLE_USAGE(.BOTH.,#486);
#486 = SURFACE_SIDE_STYLE('',(#487));
#487 = SURFACE_STYLE_FILL_AREA(#488);
#488 = FILL_AREA_STYLE('',(#489));
#489 = FILL_AREA_STYLE_COLOUR('',#447);
ENDSEC;
END-ISO-10303-21;
