ISO-10303-21;
HEADER;
FILE_DESCRIPTION(('FreeCAD Model'),'2;1');
FILE_NAME(
'D:/KiCAD/packages3D-source/Diode_THT.3dshapes\\
D_DO-201AD_P5.08mm_Vertical_AnodeUp.step','2017-11-24T17:59:55',(
    'kicad StepUp'),('ksu MCAD'),'Open CASCADE STEP processor 7.1',
  'FreeCAD','Unknown');
FILE_SCHEMA(('AUTOMOTIVE_DESIGN { 1 0 10303 214 1 1 1 1 }'));
ENDSEC;
DATA;
#1 = APPLICATION_PROTOCOL_DEFINITION('international standard',
  'automotive_design',2000,#2);
#2 = APPLICATION_CONTEXT(
  'core data for automotive mechanical design processes');
#3 = SHAPE_DEFINITION_REPRESENTATION(#4,#10);
#4 = PRODUCT_DEFINITION_SHAPE('','',#5);
#5 = PRODUCT_DEFINITION('design','',#6,#9);
#6 = PRODUCT_DEFINITION_FORMATION('','',#7);
#7 = PRODUCT('D_DO-201AD_P5.08mm_Vertical_AnodeUp',
  'D_DO-201AD_P5.08mm_Vertical_AnodeUp','',(#8));
#8 = PRODUCT_CONTEXT('',#2,'mechanical');
#9 = PRODUCT_DEFINITION_CONTEXT('part definition',#2,'design');
#10 = ADVANCED_BREP_SHAPE_REPRESENTATION('',(#11,#15),#350);
#11 = AXIS2_PLACEMENT_3D('',#12,#13,#14);
#12 = CARTESIAN_POINT('',(0.E+000,0.E+000,0.E+000));
#13 = DIRECTION('',(0.E+000,0.E+000,1.));
#14 = DIRECTION('',(1.,0.E+000,-0.E+000));
#15 = MANIFOLD_SOLID_BREP('',#16);
#16 = CLOSED_SHELL('',(#17,#50,#70,#90,#115,#140,#160,#180,#205,#230,
    #256,#265,#290,#316,#341));
#17 = ADVANCED_FACE('',(#18),#45,.T.);
#18 = FACE_BOUND('',#19,.T.);
#19 = EDGE_LOOP('',(#20,#29,#37,#44));
#20 = ORIENTED_EDGE('',*,*,#21,.T.);
#21 = EDGE_CURVE('',#22,#22,#24,.T.);
#22 = VERTEX_POINT('',#23);
#23 = CARTESIAN_POINT('',(2.61,2.864375403533E-015,4.3));
#24 = CIRCLE('',#25,2.61);
#25 = AXIS2_PLACEMENT_3D('',#26,#27,#28);
#26 = CARTESIAN_POINT('',(0.E+000,1.909583602355E-015,4.3));
#27 = DIRECTION('',(0.E+000,-4.440892098501E-016,-1.));
#28 = DIRECTION('',(1.,3.65820613478E-016,-1.624569871863E-031));
#29 = ORIENTED_EDGE('',*,*,#30,.T.);
#30 = EDGE_CURVE('',#22,#31,#33,.T.);
#31 = VERTEX_POINT('',#32);
#32 = CARTESIAN_POINT('',(2.61,1.282307593442E-015,1.925));
#33 = LINE('',#34,#35);
#34 = CARTESIAN_POINT('',(2.61,2.864375403533E-015,4.3));
#35 = VECTOR('',#36,1.);
#36 = DIRECTION('',(0.E+000,-6.661338147751E-016,-1.));
#37 = ORIENTED_EDGE('',*,*,#38,.F.);
#38 = EDGE_CURVE('',#31,#31,#39,.T.);
#39 = CIRCLE('',#40,2.61);
#40 = AXIS2_PLACEMENT_3D('',#41,#42,#43);
#41 = CARTESIAN_POINT('',(0.E+000,8.548717289614E-016,1.925));
#42 = DIRECTION('',(0.E+000,-4.440892098501E-016,-1.));
#43 = DIRECTION('',(1.,1.637685304524E-016,-7.27278372869E-032));
#44 = ORIENTED_EDGE('',*,*,#30,.F.);
#45 = CYLINDRICAL_SURFACE('',#46,2.61);
#46 = AXIS2_PLACEMENT_3D('',#47,#48,#49);
#47 = CARTESIAN_POINT('',(0.E+000,1.909583602355E-015,4.3));
#48 = DIRECTION('',(0.E+000,-4.440892098501E-016,-1.));
#49 = DIRECTION('',(1.,3.65820613478E-016,-1.624569871863E-031));
#50 = ADVANCED_FACE('',(#51,#54),#65,.F.);
#51 = FACE_BOUND('',#52,.T.);
#52 = EDGE_LOOP('',(#53));
#53 = ORIENTED_EDGE('',*,*,#21,.F.);
#54 = FACE_BOUND('',#55,.T.);
#55 = EDGE_LOOP('',(#56));
#56 = ORIENTED_EDGE('',*,*,#57,.T.);
#57 = EDGE_CURVE('',#58,#58,#60,.T.);
#58 = VERTEX_POINT('',#59);
#59 = CARTESIAN_POINT('',(2.6,2.864375403533E-015,4.3));
#60 = CIRCLE('',#61,2.6);
#61 = AXIS2_PLACEMENT_3D('',#62,#63,#64);
#62 = CARTESIAN_POINT('',(0.E+000,1.909583602355E-015,4.3));
#63 = DIRECTION('',(0.E+000,-4.440892098501E-016,-1.));
#64 = DIRECTION('',(1.,8.540177112501E-016,-3.79260050587E-031));
#65 = PLANE('',#66);
#66 = AXIS2_PLACEMENT_3D('',#67,#68,#69);
#67 = CARTESIAN_POINT('',(0.E+000,1.909583602355E-015,4.3));
#68 = DIRECTION('',(0.E+000,-4.440892098501E-016,-1.));
#69 = DIRECTION('',(1.,3.65820613478E-016,-1.624569871863E-031));
#70 = ADVANCED_FACE('',(#71,#74),#85,.T.);
#71 = FACE_BOUND('',#72,.T.);
#72 = EDGE_LOOP('',(#73));
#73 = ORIENTED_EDGE('',*,*,#38,.T.);
#74 = FACE_BOUND('',#75,.T.);
#75 = EDGE_LOOP('',(#76));
#76 = ORIENTED_EDGE('',*,*,#77,.F.);
#77 = EDGE_CURVE('',#78,#78,#80,.T.);
#78 = VERTEX_POINT('',#79);
#79 = CARTESIAN_POINT('',(2.6,1.282307593442E-015,1.925));
#80 = CIRCLE('',#81,2.6);
#81 = AXIS2_PLACEMENT_3D('',#82,#83,#84);
#82 = CARTESIAN_POINT('',(0.E+000,8.548717289614E-016,1.925));
#83 = DIRECTION('',(0.E+000,-4.440892098501E-016,-1.));
#84 = DIRECTION('',(1.,8.540177112501E-016,-3.79260050587E-031));
#85 = PLANE('',#86);
#86 = AXIS2_PLACEMENT_3D('',#87,#88,#89);
#87 = CARTESIAN_POINT('',(0.E+000,8.548717289614E-016,1.925));
#88 = DIRECTION('',(0.E+000,-4.440892098501E-016,-1.));
#89 = DIRECTION('',(1.,1.637685304524E-016,-7.27278372869E-032));
#90 = ADVANCED_FACE('',(#91),#110,.T.);
#91 = FACE_BOUND('',#92,.T.);
#92 = EDGE_LOOP('',(#93,#101,#108,#109));
#93 = ORIENTED_EDGE('',*,*,#94,.F.);
#94 = EDGE_CURVE('',#95,#58,#97,.T.);
#95 = VERTEX_POINT('',#96);
#96 = CARTESIAN_POINT('',(2.6,6.661338147751E-015,10.));
#97 = LINE('',#98,#99);
#98 = CARTESIAN_POINT('',(2.6,6.661338147751E-015,10.));
#99 = VECTOR('',#100,1.);
#100 = DIRECTION('',(0.E+000,-6.661338147751E-016,-1.));
#101 = ORIENTED_EDGE('',*,*,#102,.T.);
#102 = EDGE_CURVE('',#95,#95,#103,.T.);
#103 = CIRCLE('',#104,2.6);
#104 = AXIS2_PLACEMENT_3D('',#105,#106,#107);
#105 = CARTESIAN_POINT('',(0.E+000,4.440892098501E-015,10.));
#106 = DIRECTION('',(0.E+000,-4.440892098501E-016,-1.));
#107 = DIRECTION('',(1.,8.540177112501E-016,-3.79260050587E-031));
#108 = ORIENTED_EDGE('',*,*,#94,.T.);
#109 = ORIENTED_EDGE('',*,*,#57,.F.);
#110 = CYLINDRICAL_SURFACE('',#111,2.6);
#111 = AXIS2_PLACEMENT_3D('',#112,#113,#114);
#112 = CARTESIAN_POINT('',(0.E+000,4.440892098501E-015,10.));
#113 = DIRECTION('',(0.E+000,-4.440892098501E-016,-1.));
#114 = DIRECTION('',(1.,8.540177112501E-016,-3.79260050587E-031));
#115 = ADVANCED_FACE('',(#116),#135,.T.);
#116 = FACE_BOUND('',#117,.T.);
#117 = EDGE_LOOP('',(#118,#119,#127,#134));
#118 = ORIENTED_EDGE('',*,*,#77,.T.);
#119 = ORIENTED_EDGE('',*,*,#120,.T.);
#120 = EDGE_CURVE('',#78,#121,#123,.T.);
#121 = VERTEX_POINT('',#122);
#122 = CARTESIAN_POINT('',(2.6,3.330669073875E-016,0.5));
#123 = LINE('',#124,#125);
#124 = CARTESIAN_POINT('',(2.6,6.661338147751E-015,10.));
#125 = VECTOR('',#126,1.);
#126 = DIRECTION('',(0.E+000,-6.661338147751E-016,-1.));
#127 = ORIENTED_EDGE('',*,*,#128,.F.);
#128 = EDGE_CURVE('',#121,#121,#129,.T.);
#129 = CIRCLE('',#130,2.6);
#130 = AXIS2_PLACEMENT_3D('',#131,#132,#133);
#131 = CARTESIAN_POINT('',(0.E+000,2.22044604925E-016,0.5));
#132 = DIRECTION('',(0.E+000,-4.440892098501E-016,-1.));
#133 = DIRECTION('',(1.,4.270088556251E-017,-1.896300252935E-032));
#134 = ORIENTED_EDGE('',*,*,#120,.F.);
#135 = CYLINDRICAL_SURFACE('',#136,2.6);
#136 = AXIS2_PLACEMENT_3D('',#137,#138,#139);
#137 = CARTESIAN_POINT('',(0.E+000,4.440892098501E-015,10.));
#138 = DIRECTION('',(0.E+000,-4.440892098501E-016,-1.));
#139 = DIRECTION('',(1.,8.540177112501E-016,-3.79260050587E-031));
#140 = ADVANCED_FACE('',(#141,#144),#155,.F.);
#141 = FACE_BOUND('',#142,.T.);
#142 = EDGE_LOOP('',(#143));
#143 = ORIENTED_EDGE('',*,*,#102,.F.);
#144 = FACE_BOUND('',#145,.T.);
#145 = EDGE_LOOP('',(#146));
#146 = ORIENTED_EDGE('',*,*,#147,.F.);
#147 = EDGE_CURVE('',#148,#148,#150,.T.);
#148 = VERTEX_POINT('',#149);
#149 = CARTESIAN_POINT('',(0.65,2.22044604925E-015,10.));
#150 = CIRCLE('',#151,0.65);
#151 = AXIS2_PLACEMENT_3D('',#152,#153,#154);
#152 = CARTESIAN_POINT('',(0.E+000,2.22044604925E-015,10.));
#153 = DIRECTION('',(-0.E+000,2.22044604925E-016,1.));
#154 = DIRECTION('',(1.,0.E+000,0.E+000));
#155 = PLANE('',#156);
#156 = AXIS2_PLACEMENT_3D('',#157,#158,#159);
#157 = CARTESIAN_POINT('',(0.E+000,4.440892098501E-015,10.));
#158 = DIRECTION('',(0.E+000,-4.440892098501E-016,-1.));
#159 = DIRECTION('',(1.,8.540177112501E-016,-3.79260050587E-031));
#160 = ADVANCED_FACE('',(#161,#164),#175,.T.);
#161 = FACE_BOUND('',#162,.T.);
#162 = EDGE_LOOP('',(#163));
#163 = ORIENTED_EDGE('',*,*,#128,.T.);
#164 = FACE_BOUND('',#165,.T.);
#165 = EDGE_LOOP('',(#166));
#166 = ORIENTED_EDGE('',*,*,#167,.T.);
#167 = EDGE_CURVE('',#168,#168,#170,.T.);
#168 = VERTEX_POINT('',#169);
#169 = CARTESIAN_POINT('',(0.65,1.110223024625E-016,0.5));
#170 = CIRCLE('',#171,0.65);
#171 = AXIS2_PLACEMENT_3D('',#172,#173,#174);
#172 = CARTESIAN_POINT('',(0.E+000,1.110223024625E-016,0.5));
#173 = DIRECTION('',(-0.E+000,2.22044604925E-016,1.));
#174 = DIRECTION('',(1.,0.E+000,0.E+000));
#175 = PLANE('',#176);
#176 = AXIS2_PLACEMENT_3D('',#177,#178,#179);
#177 = CARTESIAN_POINT('',(0.E+000,2.22044604925E-016,0.5));
#178 = DIRECTION('',(0.E+000,-4.440892098501E-016,-1.));
#179 = DIRECTION('',(1.,4.270088556251E-017,-1.896300252935E-032));
#180 = ADVANCED_FACE('',(#181),#200,.T.);
#181 = FACE_BOUND('',#182,.T.);
#182 = EDGE_LOOP('',(#183,#184,#192,#199));
#183 = ORIENTED_EDGE('',*,*,#147,.T.);
#184 = ORIENTED_EDGE('',*,*,#185,.T.);
#185 = EDGE_CURVE('',#148,#186,#188,.T.);
#186 = VERTEX_POINT('',#187);
#187 = CARTESIAN_POINT('',(0.65,2.331468351713E-015,10.5));
#188 = LINE('',#189,#190);
#189 = CARTESIAN_POINT('',(0.65,-6.661338147751E-016,-3.));
#190 = VECTOR('',#191,1.);
#191 = DIRECTION('',(0.E+000,2.22044604925E-016,1.));
#192 = ORIENTED_EDGE('',*,*,#193,.F.);
#193 = EDGE_CURVE('',#186,#186,#194,.T.);
#194 = CIRCLE('',#195,0.65);
#195 = AXIS2_PLACEMENT_3D('',#196,#197,#198);
#196 = CARTESIAN_POINT('',(0.E+000,2.331468351713E-015,10.5));
#197 = DIRECTION('',(-0.E+000,2.22044604925E-016,1.));
#198 = DIRECTION('',(1.,0.E+000,0.E+000));
#199 = ORIENTED_EDGE('',*,*,#185,.F.);
#200 = CYLINDRICAL_SURFACE('',#201,0.65);
#201 = AXIS2_PLACEMENT_3D('',#202,#203,#204);
#202 = CARTESIAN_POINT('',(0.E+000,-6.661338147751E-016,-3.));
#203 = DIRECTION('',(0.E+000,2.22044604925E-016,1.));
#204 = DIRECTION('',(1.,0.E+000,0.E+000));
#205 = ADVANCED_FACE('',(#206),#225,.T.);
#206 = FACE_BOUND('',#207,.T.);
#207 = EDGE_LOOP('',(#208,#217,#223,#224));
#208 = ORIENTED_EDGE('',*,*,#209,.T.);
#209 = EDGE_CURVE('',#210,#210,#212,.T.);
#210 = VERTEX_POINT('',#211);
#211 = CARTESIAN_POINT('',(0.65,-8.253378986643E-016,-3.));
#212 = CIRCLE('',#213,0.65);
#213 = AXIS2_PLACEMENT_3D('',#214,#215,#216);
#214 = CARTESIAN_POINT('',(0.E+000,-6.661338147751E-016,-3.));
#215 = DIRECTION('',(-0.E+000,2.22044604925E-016,1.));
#216 = DIRECTION('',(1.,0.E+000,0.E+000));
#217 = ORIENTED_EDGE('',*,*,#218,.T.);
#218 = EDGE_CURVE('',#210,#168,#219,.T.);
#219 = LINE('',#220,#221);
#220 = CARTESIAN_POINT('',(0.65,-6.661338147751E-016,-3.));
#221 = VECTOR('',#222,1.);
#222 = DIRECTION('',(0.E+000,2.22044604925E-016,1.));
#223 = ORIENTED_EDGE('',*,*,#167,.F.);
#224 = ORIENTED_EDGE('',*,*,#218,.F.);
#225 = CYLINDRICAL_SURFACE('',#226,0.65);
#226 = AXIS2_PLACEMENT_3D('',#227,#228,#229);
#227 = CARTESIAN_POINT('',(0.E+000,-6.661338147751E-016,-3.));
#228 = DIRECTION('',(0.E+000,2.22044604925E-016,1.));
#229 = DIRECTION('',(1.,0.E+000,0.E+000));
#230 = ADVANCED_FACE('',(#231),#251,.T.);
#231 = FACE_BOUND('',#232,.T.);
#232 = EDGE_LOOP('',(#233,#242,#249,#250));
#233 = ORIENTED_EDGE('',*,*,#234,.T.);
#234 = EDGE_CURVE('',#186,#235,#237,.T.);
#235 = VERTEX_POINT('',#236);
#236 = CARTESIAN_POINT('',(1.3,2.475797344914E-015,11.15));
#237 = CIRCLE('',#238,0.65);
#238 = AXIS2_PLACEMENT_3D('',#239,#240,#241);
#239 = CARTESIAN_POINT('',(1.3,2.570274477547E-015,10.5));
#240 = DIRECTION('',(0.E+000,1.,-2.22044604925E-016));
#241 = DIRECTION('',(1.,0.E+000,0.E+000));
#242 = ORIENTED_EDGE('',*,*,#243,.T.);
#243 = EDGE_CURVE('',#235,#235,#244,.T.);
#244 = CIRCLE('',#245,0.65);
#245 = AXIS2_PLACEMENT_3D('',#246,#247,#248);
#246 = CARTESIAN_POINT('',(1.3,2.620126338115E-015,11.8));
#247 = DIRECTION('',(-1.,-4.078893220341E-032,-1.836970198721E-016));
#248 = DIRECTION('',(-1.836970198721E-016,2.22044604925E-016,1.));
#249 = ORIENTED_EDGE('',*,*,#234,.F.);
#250 = ORIENTED_EDGE('',*,*,#193,.T.);
#251 = TOROIDAL_SURFACE('',#252,1.3,0.65);
#252 = AXIS2_PLACEMENT_3D('',#253,#254,#255);
#253 = CARTESIAN_POINT('',(1.3,2.331468351713E-015,10.5));
#254 = DIRECTION('',(0.E+000,1.,-2.22044604925E-016));
#255 = DIRECTION('',(1.,0.E+000,0.E+000));
#256 = ADVANCED_FACE('',(#257),#260,.T.);
#257 = FACE_BOUND('',#258,.F.);
#258 = EDGE_LOOP('',(#259));
#259 = ORIENTED_EDGE('',*,*,#209,.T.);
#260 = PLANE('',#261);
#261 = AXIS2_PLACEMENT_3D('',#262,#263,#264);
#262 = CARTESIAN_POINT('',(0.65,-6.661338147751E-016,-3.));
#263 = DIRECTION('',(0.E+000,0.E+000,-1.));
#264 = DIRECTION('',(-1.,0.E+000,0.E+000));
#265 = ADVANCED_FACE('',(#266),#285,.T.);
#266 = FACE_BOUND('',#267,.T.);
#267 = EDGE_LOOP('',(#268,#276,#283,#284));
#268 = ORIENTED_EDGE('',*,*,#269,.T.);
#269 = EDGE_CURVE('',#235,#270,#272,.T.);
#270 = VERTEX_POINT('',#271);
#271 = CARTESIAN_POINT('',(3.78,2.475797344914E-015,11.15));
#272 = LINE('',#273,#274);
#273 = CARTESIAN_POINT('',(1.3,2.475797344914E-015,11.15));
#274 = VECTOR('',#275,1.);
#275 = DIRECTION('',(1.,0.E+000,0.E+000));
#276 = ORIENTED_EDGE('',*,*,#277,.F.);
#277 = EDGE_CURVE('',#270,#270,#278,.T.);
#278 = CIRCLE('',#279,0.65);
#279 = AXIS2_PLACEMENT_3D('',#280,#281,#282);
#280 = CARTESIAN_POINT('',(3.78,2.620126338115E-015,11.8));
#281 = DIRECTION('',(1.,0.E+000,0.E+000));
#282 = DIRECTION('',(0.E+000,-2.22044604925E-016,-1.));
#283 = ORIENTED_EDGE('',*,*,#269,.F.);
#284 = ORIENTED_EDGE('',*,*,#243,.F.);
#285 = CYLINDRICAL_SURFACE('',#286,0.65);
#286 = AXIS2_PLACEMENT_3D('',#287,#288,#289);
#287 = CARTESIAN_POINT('',(1.3,2.620126338115E-015,11.8));
#288 = DIRECTION('',(1.,0.E+000,0.E+000));
#289 = DIRECTION('',(0.E+000,-2.22044604925E-016,-1.));
#290 = ADVANCED_FACE('',(#291),#311,.T.);
#291 = FACE_BOUND('',#292,.T.);
#292 = EDGE_LOOP('',(#293,#302,#309,#310));
#293 = ORIENTED_EDGE('',*,*,#294,.T.);
#294 = EDGE_CURVE('',#270,#295,#297,.T.);
#295 = VERTEX_POINT('',#296);
#296 = CARTESIAN_POINT('',(4.43,2.331468351713E-015,10.5));
#297 = CIRCLE('',#298,0.65);
#298 = AXIS2_PLACEMENT_3D('',#299,#300,#301);
#299 = CARTESIAN_POINT('',(3.78,2.570274477547E-015,10.5));
#300 = DIRECTION('',(0.E+000,1.,-2.22044604925E-016));
#301 = DIRECTION('',(1.,0.E+000,0.E+000));
#302 = ORIENTED_EDGE('',*,*,#303,.T.);
#303 = EDGE_CURVE('',#295,#295,#304,.T.);
#304 = CIRCLE('',#305,0.65);
#305 = AXIS2_PLACEMENT_3D('',#306,#307,#308);
#306 = CARTESIAN_POINT('',(5.08,2.331468351713E-015,10.5));
#307 = DIRECTION('',(-2.449293598295E-016,2.22044604925E-016,1.));
#308 = DIRECTION('',(1.,5.438524293788E-032,2.449293598295E-016));
#309 = ORIENTED_EDGE('',*,*,#294,.F.);
#310 = ORIENTED_EDGE('',*,*,#277,.T.);
#311 = TOROIDAL_SURFACE('',#312,1.3,0.65);
#312 = AXIS2_PLACEMENT_3D('',#313,#314,#315);
#313 = CARTESIAN_POINT('',(3.78,2.331468351713E-015,10.5));
#314 = DIRECTION('',(0.E+000,1.,-2.22044604925E-016));
#315 = DIRECTION('',(1.,0.E+000,0.E+000));
#316 = ADVANCED_FACE('',(#317),#336,.T.);
#317 = FACE_BOUND('',#318,.T.);
#318 = EDGE_LOOP('',(#319,#327,#334,#335));
#319 = ORIENTED_EDGE('',*,*,#320,.T.);
#320 = EDGE_CURVE('',#295,#321,#323,.T.);
#321 = VERTEX_POINT('',#322);
#322 = CARTESIAN_POINT('',(4.43,-8.253378986643E-016,-3.));
#323 = LINE('',#324,#325);
#324 = CARTESIAN_POINT('',(4.43,-6.661338147751E-016,-3.));
#325 = VECTOR('',#326,1.);
#326 = DIRECTION('',(0.E+000,-2.22044604925E-016,-1.));
#327 = ORIENTED_EDGE('',*,*,#328,.F.);
#328 = EDGE_CURVE('',#321,#321,#329,.T.);
#329 = CIRCLE('',#330,0.65);
#330 = AXIS2_PLACEMENT_3D('',#331,#332,#333);
#331 = CARTESIAN_POINT('',(5.08,-6.661338147751E-016,-3.));
#332 = DIRECTION('',(0.E+000,-2.22044604925E-016,-1.));
#333 = DIRECTION('',(-1.,5.473822126269E-048,-1.215432671457E-063));
#334 = ORIENTED_EDGE('',*,*,#320,.F.);
#335 = ORIENTED_EDGE('',*,*,#303,.F.);
#336 = CYLINDRICAL_SURFACE('',#337,0.65);
#337 = AXIS2_PLACEMENT_3D('',#338,#339,#340);
#338 = CARTESIAN_POINT('',(5.08,-6.661338147751E-016,-3.));
#339 = DIRECTION('',(0.E+000,-2.22044604925E-016,-1.));
#340 = DIRECTION('',(-1.,5.473822126269E-048,-1.215432671457E-063));
#341 = ADVANCED_FACE('',(#342),#345,.F.);
#342 = FACE_BOUND('',#343,.T.);
#343 = EDGE_LOOP('',(#344));
#344 = ORIENTED_EDGE('',*,*,#328,.T.);
#345 = PLANE('',#346);
#346 = AXIS2_PLACEMENT_3D('',#347,#348,#349);
#347 = CARTESIAN_POINT('',(4.43,-6.661338147751E-016,-3.));
#348 = DIRECTION('',(0.E+000,0.E+000,1.));
#349 = DIRECTION('',(1.,0.E+000,0.E+000));
#350 = ( GEOMETRIC_REPRESENTATION_CONTEXT(3) 
GLOBAL_UNCERTAINTY_ASSIGNED_CONTEXT((#354)) GLOBAL_UNIT_ASSIGNED_CONTEXT
((#351,#352,#353)) REPRESENTATION_CONTEXT('Context #1',
  '3D Context with UNIT and UNCERTAINTY') );
#351 = ( LENGTH_UNIT() NAMED_UNIT(*) SI_UNIT(.MILLI.,.METRE.) );
#352 = ( NAMED_UNIT(*) PLANE_ANGLE_UNIT() SI_UNIT($,.RADIAN.) );
#353 = ( NAMED_UNIT(*) SI_UNIT($,.STERADIAN.) SOLID_ANGLE_UNIT() );
#354 = UNCERTAINTY_MEASURE_WITH_UNIT(LENGTH_MEASURE(1.E-007),#351,
  'distance_accuracy_value','confusion accuracy');
#355 = PRODUCT_RELATED_PRODUCT_CATEGORY('part',$,(#7));
#356 = MECHANICAL_DESIGN_GEOMETRIC_PRESENTATION_REPRESENTATION('',(#357,
    #365,#372,#379,#387,#394,#401,#408,#416,#423,#430,#437,#444,#451,
    #458),#350);
#357 = STYLED_ITEM('color',(#358),#17);
#358 = PRESENTATION_STYLE_ASSIGNMENT((#359));
#359 = SURFACE_STYLE_USAGE(.BOTH.,#360);
#360 = SURFACE_SIDE_STYLE('',(#361));
#361 = SURFACE_STYLE_FILL_AREA(#362);
#362 = FILL_AREA_STYLE('',(#363));
#363 = FILL_AREA_STYLE_COLOUR('',#364);
#364 = COLOUR_RGB('',0.894999980927,0.89099997282,0.813000023365);
#365 = STYLED_ITEM('color',(#366),#50);
#366 = PRESENTATION_STYLE_ASSIGNMENT((#367));
#367 = SURFACE_STYLE_USAGE(.BOTH.,#368);
#368 = SURFACE_SIDE_STYLE('',(#369));
#369 = SURFACE_STYLE_FILL_AREA(#370);
#370 = FILL_AREA_STYLE('',(#371));
#371 = FILL_AREA_STYLE_COLOUR('',#364);
#372 = STYLED_ITEM('color',(#373),#70);
#373 = PRESENTATION_STYLE_ASSIGNMENT((#374));
#374 = SURFACE_STYLE_USAGE(.BOTH.,#375);
#375 = SURFACE_SIDE_STYLE('',(#376));
#376 = SURFACE_STYLE_FILL_AREA(#377);
#377 = FILL_AREA_STYLE('',(#378));
#378 = FILL_AREA_STYLE_COLOUR('',#364);
#379 = STYLED_ITEM('color',(#380),#90);
#380 = PRESENTATION_STYLE_ASSIGNMENT((#381));
#381 = SURFACE_STYLE_USAGE(.BOTH.,#382);
#382 = SURFACE_SIDE_STYLE('',(#383));
#383 = SURFACE_STYLE_FILL_AREA(#384);
#384 = FILL_AREA_STYLE('',(#385));
#385 = FILL_AREA_STYLE_COLOUR('',#386);
#386 = COLOUR_RGB('',0.148000001907,0.144999995828,0.144999995828);
#387 = STYLED_ITEM('color',(#388),#115);
#388 = PRESENTATION_STYLE_ASSIGNMENT((#389));
#389 = SURFACE_STYLE_USAGE(.BOTH.,#390);
#390 = SURFACE_SIDE_STYLE('',(#391));
#391 = SURFACE_STYLE_FILL_AREA(#392);
#392 = FILL_AREA_STYLE('',(#393));
#393 = FILL_AREA_STYLE_COLOUR('',#386);
#394 = STYLED_ITEM('color',(#395),#140);
#395 = PRESENTATION_STYLE_ASSIGNMENT((#396));
#396 = SURFACE_STYLE_USAGE(.BOTH.,#397);
#397 = SURFACE_SIDE_STYLE('',(#398));
#398 = SURFACE_STYLE_FILL_AREA(#399);
#399 = FILL_AREA_STYLE('',(#400));
#400 = FILL_AREA_STYLE_COLOUR('',#386);
#401 = STYLED_ITEM('color',(#402),#160);
#402 = PRESENTATION_STYLE_ASSIGNMENT((#403));
#403 = SURFACE_STYLE_USAGE(.BOTH.,#404);
#404 = SURFACE_SIDE_STYLE('',(#405));
#405 = SURFACE_STYLE_FILL_AREA(#406);
#406 = FILL_AREA_STYLE('',(#407));
#407 = FILL_AREA_STYLE_COLOUR('',#386);
#408 = STYLED_ITEM('color',(#409),#180);
#409 = PRESENTATION_STYLE_ASSIGNMENT((#410));
#410 = SURFACE_STYLE_USAGE(.BOTH.,#411);
#411 = SURFACE_SIDE_STYLE('',(#412));
#412 = SURFACE_STYLE_FILL_AREA(#413);
#413 = FILL_AREA_STYLE('',(#414));
#414 = FILL_AREA_STYLE_COLOUR('',#415);
#415 = COLOUR_RGB('',0.824000000954,0.819999992847,0.78100001812);
#416 = STYLED_ITEM('color',(#417),#205);
#417 = PRESENTATION_STYLE_ASSIGNMENT((#418));
#418 = SURFACE_STYLE_USAGE(.BOTH.,#419);
#419 = SURFACE_SIDE_STYLE('',(#420));
#420 = SURFACE_STYLE_FILL_AREA(#421);
#421 = FILL_AREA_STYLE('',(#422));
#422 = FILL_AREA_STYLE_COLOUR('',#415);
#423 = STYLED_ITEM('color',(#424),#230);
#424 = PRESENTATION_STYLE_ASSIGNMENT((#425));
#425 = SURFACE_STYLE_USAGE(.BOTH.,#426);
#426 = SURFACE_SIDE_STYLE('',(#427));
#427 = SURFACE_STYLE_FILL_AREA(#428);
#428 = FILL_AREA_STYLE('',(#429));
#429 = FILL_AREA_STYLE_COLOUR('',#415);
#430 = STYLED_ITEM('color',(#431),#256);
#431 = PRESENTATION_STYLE_ASSIGNMENT((#432));
#432 = SURFACE_STYLE_USAGE(.BOTH.,#433);
#433 = SURFACE_SIDE_STYLE('',(#434));
#434 = SURFACE_STYLE_FILL_AREA(#435);
#435 = FILL_AREA_STYLE('',(#436));
#436 = FILL_AREA_STYLE_COLOUR('',#415);
#437 = STYLED_ITEM('color',(#438),#265);
#438 = PRESENTATION_STYLE_ASSIGNMENT((#439));
#439 = SURFACE_STYLE_USAGE(.BOTH.,#440);
#440 = SURFACE_SIDE_STYLE('',(#441));
#441 = SURFACE_STYLE_FILL_AREA(#442);
#442 = FILL_AREA_STYLE('',(#443));
#443 = FILL_AREA_STYLE_COLOUR('',#415);
#444 = STYLED_ITEM('color',(#445),#290);
#445 = PRESENTATION_STYLE_ASSIGNMENT((#446));
#446 = SURFACE_STYLE_USAGE(.BOTH.,#447);
#447 = SURFACE_SIDE_STYLE('',(#448));
#448 = SURFACE_STYLE_FILL_AREA(#449);
#449 = FILL_AREA_STYLE('',(#450));
#450 = FILL_AREA_STYLE_COLOUR('',#415);
#451 = STYLED_ITEM('color',(#452),#316);
#452 = PRESENTATION_STYLE_ASSIGNMENT((#453));
#453 = SURFACE_STYLE_USAGE(.BOTH.,#454);
#454 = SURFACE_SIDE_STYLE('',(#455));
#455 = SURFACE_STYLE_FILL_AREA(#456);
#456 = FILL_AREA_STYLE('',(#457));
#457 = FILL_AREA_STYLE_COLOUR('',#415);
#458 = STYLED_ITEM('color',(#459),#341);
#459 = PRESENTATION_STYLE_ASSIGNMENT((#460));
#460 = SURFACE_STYLE_USAGE(.BOTH.,#461);
#461 = SURFACE_SIDE_STYLE('',(#462));
#462 = SURFACE_STYLE_FILL_AREA(#463);
#463 = FILL_AREA_STYLE('',(#464));
#464 = FILL_AREA_STYLE_COLOUR('',#415);
ENDSEC;
END-ISO-10303-21;
