ISO-10303-21;
HEADER;
FILE_DESCRIPTION(('FreeCAD Model'),'2;1');
FILE_NAME(
  'D:/KiCAD/packages3D-source/Package_TO_SOT_THT.3dshapes\\TO-8-2.step',
  '2017-11-26T14:46:58',('kicad StepUp'),('ksu MCAD'),
  'Open CASCADE STEP processor 6.8','FreeCAD','Unknown');
FILE_SCHEMA(('AUTOMOTIVE_DESIGN_CC2 { 1 2 10303 214 -1 1 5 4 }'));
ENDSEC;
DATA;
#1 = APPLICATION_PROTOCOL_DEFINITION('committee draft',
  'automotive_design',1997,#2);
#2 = APPLICATION_CONTEXT(
  'core data for automotive mechanical design processes');
#3 = SHAPE_DEFINITION_REPRESENTATION(#4,#10);
#4 = PRODUCT_DEFINITION_SHAPE('','',#5);
#5 = PRODUCT_DEFINITION('design','',#6,#9);
#6 = PRODUCT_DEFINITION_FORMATION('','',#7);
#7 = PRODUCT('TO-8-2','TO-8-2','',(#8));
#8 = MECHANICAL_CONTEXT('',#2,'mechanical');
#9 = PRODUCT_DEFINITION_CONTEXT('part definition',#2,'design');
#10 = ADVANCED_BREP_SHAPE_REPRESENTATION('',(#11,#15),#502);
#11 = AXIS2_PLACEMENT_3D('',#12,#13,#14);
#12 = CARTESIAN_POINT('',(0.E+000,0.E+000,0.E+000));
#13 = DIRECTION('',(0.E+000,0.E+000,1.));
#14 = DIRECTION('',(1.,0.E+000,-0.E+000));
#15 = MANIFOLD_SOLID_BREP('',#16);
#16 = CLOSED_SHELL('',(#17,#57,#88,#119,#137,#155,#188,#212,#243,#275,
    #310,#338,#370,#395,#420,#445,#454,#463,#493));
#17 = ADVANCED_FACE('',(#18),#52,.T.);
#18 = FACE_BOUND('',#19,.T.);
#19 = EDGE_LOOP('',(#20,#30,#38,#46));
#20 = ORIENTED_EDGE('',*,*,#21,.T.);
#21 = EDGE_CURVE('',#22,#24,#26,.T.);
#22 = VERTEX_POINT('',#23);
#23 = CARTESIAN_POINT('',(-2.552331521642,5.494219689817,5.));
#24 = VERTEX_POINT('',#25);
#25 = CARTESIAN_POINT('',(-2.552331521642,5.494219689817,5.5));
#26 = LINE('',#27,#28);
#27 = CARTESIAN_POINT('',(-2.552331521642,5.494219689817,5.));
#28 = VECTOR('',#29,1.);
#29 = DIRECTION('',(0.E+000,0.E+000,1.));
#30 = ORIENTED_EDGE('',*,*,#31,.T.);
#31 = EDGE_CURVE('',#24,#32,#34,.T.);
#32 = VERTEX_POINT('',#33);
#33 = CARTESIAN_POINT('',(-1.944219689822,6.102331521638,5.5));
#34 = LINE('',#35,#36);
#35 = CARTESIAN_POINT('',(-2.552331521642,5.494219689817,5.5));
#36 = VECTOR('',#37,1.);
#37 = DIRECTION('',(0.707106781186,0.707106781187,0.E+000));
#38 = ORIENTED_EDGE('',*,*,#39,.F.);
#39 = EDGE_CURVE('',#40,#32,#42,.T.);
#40 = VERTEX_POINT('',#41);
#41 = CARTESIAN_POINT('',(-1.944219689822,6.102331521638,5.));
#42 = LINE('',#43,#44);
#43 = CARTESIAN_POINT('',(-1.944219689822,6.102331521638,5.));
#44 = VECTOR('',#45,1.);
#45 = DIRECTION('',(0.E+000,0.E+000,1.));
#46 = ORIENTED_EDGE('',*,*,#47,.F.);
#47 = EDGE_CURVE('',#22,#40,#48,.T.);
#48 = LINE('',#49,#50);
#49 = CARTESIAN_POINT('',(-2.552331521642,5.494219689817,5.));
#50 = VECTOR('',#51,1.);
#51 = DIRECTION('',(0.707106781186,0.707106781187,0.E+000));
#52 = PLANE('',#53);
#53 = AXIS2_PLACEMENT_3D('',#54,#55,#56);
#54 = CARTESIAN_POINT('',(-2.552331521642,5.494219689817,5.));
#55 = DIRECTION('',(-0.707106781187,0.707106781186,0.E+000));
#56 = DIRECTION('',(0.707106781186,0.707106781187,0.E+000));
#57 = ADVANCED_FACE('',(#58),#83,.T.);
#58 = FACE_BOUND('',#59,.T.);
#59 = EDGE_LOOP('',(#60,#68,#76,#82));
#60 = ORIENTED_EDGE('',*,*,#61,.F.);
#61 = EDGE_CURVE('',#62,#22,#64,.T.);
#62 = VERTEX_POINT('',#63);
#63 = CARTESIAN_POINT('',(-1.83613718248,4.778025350656,5.));
#64 = LINE('',#65,#66);
#65 = CARTESIAN_POINT('',(3.24594408409,-0.30405591591,5.));
#66 = VECTOR('',#67,1.);
#67 = DIRECTION('',(-0.707106781187,0.707106781186,0.E+000));
#68 = ORIENTED_EDGE('',*,*,#69,.T.);
#69 = EDGE_CURVE('',#62,#70,#72,.T.);
#70 = VERTEX_POINT('',#71);
#71 = CARTESIAN_POINT('',(-1.83613718248,4.778025350656,5.5));
#72 = LINE('',#73,#74);
#73 = CARTESIAN_POINT('',(-1.83613718248,4.778025350656,5.));
#74 = VECTOR('',#75,1.);
#75 = DIRECTION('',(0.E+000,4.440892098501E-016,1.));
#76 = ORIENTED_EDGE('',*,*,#77,.T.);
#77 = EDGE_CURVE('',#70,#24,#78,.T.);
#78 = LINE('',#79,#80);
#79 = CARTESIAN_POINT('',(3.24594408409,-0.30405591591,5.5));
#80 = VECTOR('',#81,1.);
#81 = DIRECTION('',(-0.707106781187,0.707106781186,0.E+000));
#82 = ORIENTED_EDGE('',*,*,#21,.F.);
#83 = PLANE('',#84);
#84 = AXIS2_PLACEMENT_3D('',#85,#86,#87);
#85 = CARTESIAN_POINT('',(3.24594408409,-0.30405591591,5.));
#86 = DIRECTION('',(-0.707106781186,-0.707106781187,0.E+000));
#87 = DIRECTION('',(-0.707106781187,0.707106781186,0.E+000));
#88 = ADVANCED_FACE('',(#89),#114,.F.);
#89 = FACE_BOUND('',#90,.F.);
#90 = EDGE_LOOP('',(#91,#99,#107,#113));
#91 = ORIENTED_EDGE('',*,*,#92,.F.);
#92 = EDGE_CURVE('',#93,#40,#95,.T.);
#93 = VERTEX_POINT('',#94);
#94 = CARTESIAN_POINT('',(-1.22802535066,5.386137182476,5.));
#95 = LINE('',#96,#97);
#96 = CARTESIAN_POINT('',(3.85405591591,0.30405591591,5.));
#97 = VECTOR('',#98,1.);
#98 = DIRECTION('',(-0.707106781187,0.707106781186,0.E+000));
#99 = ORIENTED_EDGE('',*,*,#100,.T.);
#100 = EDGE_CURVE('',#93,#101,#103,.T.);
#101 = VERTEX_POINT('',#102);
#102 = CARTESIAN_POINT('',(-1.22802535066,5.386137182476,5.5));
#103 = LINE('',#104,#105);
#104 = CARTESIAN_POINT('',(-1.22802535066,5.386137182476,5.));
#105 = VECTOR('',#106,1.);
#106 = DIRECTION('',(0.E+000,4.440892098501E-016,1.));
#107 = ORIENTED_EDGE('',*,*,#108,.T.);
#108 = EDGE_CURVE('',#101,#32,#109,.T.);
#109 = LINE('',#110,#111);
#110 = CARTESIAN_POINT('',(3.85405591591,0.30405591591,5.5));
#111 = VECTOR('',#112,1.);
#112 = DIRECTION('',(-0.707106781187,0.707106781186,0.E+000));
#113 = ORIENTED_EDGE('',*,*,#39,.F.);
#114 = PLANE('',#115);
#115 = AXIS2_PLACEMENT_3D('',#116,#117,#118);
#116 = CARTESIAN_POINT('',(3.85405591591,0.30405591591,5.));
#117 = DIRECTION('',(-0.707106781186,-0.707106781187,0.E+000));
#118 = DIRECTION('',(-0.707106781187,0.707106781186,0.E+000));
#119 = ADVANCED_FACE('',(#120),#132,.T.);
#120 = FACE_BOUND('',#121,.T.);
#121 = EDGE_LOOP('',(#122,#129,#130,#131));
#122 = ORIENTED_EDGE('',*,*,#123,.T.);
#123 = EDGE_CURVE('',#93,#62,#124,.T.);
#124 = CIRCLE('',#125,7.2);
#125 = AXIS2_PLACEMENT_3D('',#126,#127,#128);
#126 = CARTESIAN_POINT('',(3.55,2.22044604925E-015,5.));
#127 = DIRECTION('',(0.E+000,4.440892098501E-016,1.));
#128 = DIRECTION('',(-1.,1.54197642309E-016,-6.847750913377E-032));
#129 = ORIENTED_EDGE('',*,*,#61,.T.);
#130 = ORIENTED_EDGE('',*,*,#47,.T.);
#131 = ORIENTED_EDGE('',*,*,#92,.F.);
#132 = PLANE('',#133);
#133 = AXIS2_PLACEMENT_3D('',#134,#135,#136);
#134 = CARTESIAN_POINT('',(3.24594408409,-0.30405591591,5.));
#135 = DIRECTION('',(0.E+000,0.E+000,-1.));
#136 = DIRECTION('',(-1.,0.E+000,0.E+000));
#137 = ADVANCED_FACE('',(#138),#150,.F.);
#138 = FACE_BOUND('',#139,.F.);
#139 = EDGE_LOOP('',(#140,#147,#148,#149));
#140 = ORIENTED_EDGE('',*,*,#141,.T.);
#141 = EDGE_CURVE('',#101,#70,#142,.T.);
#142 = CIRCLE('',#143,7.2);
#143 = AXIS2_PLACEMENT_3D('',#144,#145,#146);
#144 = CARTESIAN_POINT('',(3.55,2.442490654175E-015,5.5));
#145 = DIRECTION('',(0.E+000,4.440892098501E-016,1.));
#146 = DIRECTION('',(-1.,1.6961740654E-016,-7.532526004715E-032));
#147 = ORIENTED_EDGE('',*,*,#77,.T.);
#148 = ORIENTED_EDGE('',*,*,#31,.T.);
#149 = ORIENTED_EDGE('',*,*,#108,.F.);
#150 = PLANE('',#151);
#151 = AXIS2_PLACEMENT_3D('',#152,#153,#154);
#152 = CARTESIAN_POINT('',(3.24594408409,-0.30405591591,5.5));
#153 = DIRECTION('',(0.E+000,0.E+000,-1.));
#154 = DIRECTION('',(-1.,0.E+000,0.E+000));
#155 = ADVANCED_FACE('',(#156),#183,.T.);
#156 = FACE_BOUND('',#157,.T.);
#157 = EDGE_LOOP('',(#158,#167,#175,#182));
#158 = ORIENTED_EDGE('',*,*,#159,.T.);
#159 = EDGE_CURVE('',#62,#160,#162,.T.);
#160 = VERTEX_POINT('',#161);
#161 = CARTESIAN_POINT('',(-3.65,3.330669073875E-015,5.));
#162 = CIRCLE('',#163,7.2);
#163 = AXIS2_PLACEMENT_3D('',#164,#165,#166);
#164 = CARTESIAN_POINT('',(3.55,2.22044604925E-015,5.));
#165 = DIRECTION('',(0.E+000,4.440892098501E-016,1.));
#166 = DIRECTION('',(-1.,1.54197642309E-016,-6.847750913377E-032));
#167 = ORIENTED_EDGE('',*,*,#168,.T.);
#168 = EDGE_CURVE('',#160,#169,#171,.T.);
#169 = VERTEX_POINT('',#170);
#170 = CARTESIAN_POINT('',(-3.65,3.663735981263E-015,5.5));
#171 = LINE('',#172,#173);
#172 = CARTESIAN_POINT('',(-3.65,3.330669073875E-015,5.));
#173 = VECTOR('',#174,1.);
#174 = DIRECTION('',(0.E+000,6.661338147751E-016,1.));
#175 = ORIENTED_EDGE('',*,*,#176,.F.);
#176 = EDGE_CURVE('',#70,#169,#177,.T.);
#177 = CIRCLE('',#178,7.2);
#178 = AXIS2_PLACEMENT_3D('',#179,#180,#181);
#179 = CARTESIAN_POINT('',(3.55,2.442490654175E-015,5.5));
#180 = DIRECTION('',(0.E+000,4.440892098501E-016,1.));
#181 = DIRECTION('',(-1.,1.6961740654E-016,-7.532526004715E-032));
#182 = ORIENTED_EDGE('',*,*,#69,.F.);
#183 = CYLINDRICAL_SURFACE('',#184,7.2);
#184 = AXIS2_PLACEMENT_3D('',#185,#186,#187);
#185 = CARTESIAN_POINT('',(3.55,2.22044604925E-015,5.));
#186 = DIRECTION('',(0.E+000,4.440892098501E-016,1.));
#187 = DIRECTION('',(-1.,1.54197642309E-016,-6.847750913377E-032));
#188 = ADVANCED_FACE('',(#189),#207,.T.);
#189 = FACE_BOUND('',#190,.T.);
#190 = EDGE_LOOP('',(#191,#192,#199,#200));
#191 = ORIENTED_EDGE('',*,*,#168,.F.);
#192 = ORIENTED_EDGE('',*,*,#193,.T.);
#193 = EDGE_CURVE('',#160,#93,#194,.T.);
#194 = CIRCLE('',#195,7.2);
#195 = AXIS2_PLACEMENT_3D('',#196,#197,#198);
#196 = CARTESIAN_POINT('',(3.55,2.22044604925E-015,5.));
#197 = DIRECTION('',(0.E+000,4.440892098501E-016,1.));
#198 = DIRECTION('',(-1.,1.54197642309E-016,-6.847750913377E-032));
#199 = ORIENTED_EDGE('',*,*,#100,.T.);
#200 = ORIENTED_EDGE('',*,*,#201,.F.);
#201 = EDGE_CURVE('',#169,#101,#202,.T.);
#202 = CIRCLE('',#203,7.2);
#203 = AXIS2_PLACEMENT_3D('',#204,#205,#206);
#204 = CARTESIAN_POINT('',(3.55,2.442490654175E-015,5.5));
#205 = DIRECTION('',(0.E+000,4.440892098501E-016,1.));
#206 = DIRECTION('',(-1.,1.6961740654E-016,-7.532526004715E-032));
#207 = CYLINDRICAL_SURFACE('',#208,7.2);
#208 = AXIS2_PLACEMENT_3D('',#209,#210,#211);
#209 = CARTESIAN_POINT('',(3.55,2.22044604925E-015,5.));
#210 = DIRECTION('',(0.E+000,4.440892098501E-016,1.));
#211 = DIRECTION('',(-1.,1.54197642309E-016,-6.847750913377E-032));
#212 = ADVANCED_FACE('',(#213),#238,.T.);
#213 = FACE_BOUND('',#214,.T.);
#214 = EDGE_LOOP('',(#215,#225,#231,#232));
#215 = ORIENTED_EDGE('',*,*,#216,.F.);
#216 = EDGE_CURVE('',#217,#219,#221,.T.);
#217 = VERTEX_POINT('',#218);
#218 = CARTESIAN_POINT('',(3.24594408409,-0.30405591591,5.));
#219 = VERTEX_POINT('',#220);
#220 = CARTESIAN_POINT('',(3.85405591591,0.30405591591,5.));
#221 = LINE('',#222,#223);
#222 = CARTESIAN_POINT('',(3.24594408409,-0.30405591591,5.));
#223 = VECTOR('',#224,1.);
#224 = DIRECTION('',(0.707106781186,0.707106781187,0.E+000));
#225 = ORIENTED_EDGE('',*,*,#226,.T.);
#226 = EDGE_CURVE('',#217,#62,#227,.T.);
#227 = LINE('',#228,#229);
#228 = CARTESIAN_POINT('',(3.24594408409,-0.30405591591,5.));
#229 = VECTOR('',#230,1.);
#230 = DIRECTION('',(-0.707106781187,0.707106781186,0.E+000));
#231 = ORIENTED_EDGE('',*,*,#123,.F.);
#232 = ORIENTED_EDGE('',*,*,#233,.F.);
#233 = EDGE_CURVE('',#219,#93,#234,.T.);
#234 = LINE('',#235,#236);
#235 = CARTESIAN_POINT('',(3.85405591591,0.30405591591,5.));
#236 = VECTOR('',#237,1.);
#237 = DIRECTION('',(-0.707106781187,0.707106781186,0.E+000));
#238 = PLANE('',#239);
#239 = AXIS2_PLACEMENT_3D('',#240,#241,#242);
#240 = CARTESIAN_POINT('',(3.24594408409,-0.30405591591,5.));
#241 = DIRECTION('',(0.E+000,0.E+000,-1.));
#242 = DIRECTION('',(-1.,0.E+000,0.E+000));
#243 = ADVANCED_FACE('',(#244),#270,.F.);
#244 = FACE_BOUND('',#245,.F.);
#245 = EDGE_LOOP('',(#246,#257,#263,#264));
#246 = ORIENTED_EDGE('',*,*,#247,.T.);
#247 = EDGE_CURVE('',#248,#250,#252,.T.);
#248 = VERTEX_POINT('',#249);
#249 = CARTESIAN_POINT('',(-0.816187671523,4.97429950334,5.5));
#250 = VERTEX_POINT('',#251);
#251 = CARTESIAN_POINT('',(-1.424299503343,4.36618767152,5.5));
#252 = CIRCLE('',#253,6.618704581101);
#253 = AXIS2_PLACEMENT_3D('',#254,#255,#256);
#254 = CARTESIAN_POINT('',(3.55,2.442490654175E-015,5.5));
#255 = DIRECTION('',(0.E+000,4.440892098501E-016,1.));
#256 = DIRECTION('',(-1.,1.845142523168E-016,-8.194078851744E-032));
#257 = ORIENTED_EDGE('',*,*,#258,.T.);
#258 = EDGE_CURVE('',#250,#70,#259,.T.);
#259 = LINE('',#260,#261);
#260 = CARTESIAN_POINT('',(3.24594408409,-0.30405591591,5.5));
#261 = VECTOR('',#262,1.);
#262 = DIRECTION('',(-0.707106781187,0.707106781186,0.E+000));
#263 = ORIENTED_EDGE('',*,*,#141,.F.);
#264 = ORIENTED_EDGE('',*,*,#265,.F.);
#265 = EDGE_CURVE('',#248,#101,#266,.T.);
#266 = LINE('',#267,#268);
#267 = CARTESIAN_POINT('',(3.85405591591,0.30405591591,5.5));
#268 = VECTOR('',#269,1.);
#269 = DIRECTION('',(-0.707106781187,0.707106781186,0.E+000));
#270 = PLANE('',#271);
#271 = AXIS2_PLACEMENT_3D('',#272,#273,#274);
#272 = CARTESIAN_POINT('',(3.24594408409,-0.30405591591,5.5));
#273 = DIRECTION('',(0.E+000,0.E+000,-1.));
#274 = DIRECTION('',(-1.,0.E+000,0.E+000));
#275 = ADVANCED_FACE('',(#276,#283,#294),#305,.F.);
#276 = FACE_BOUND('',#277,.T.);
#277 = EDGE_LOOP('',(#278,#279,#280,#281,#282));
#278 = ORIENTED_EDGE('',*,*,#193,.F.);
#279 = ORIENTED_EDGE('',*,*,#159,.F.);
#280 = ORIENTED_EDGE('',*,*,#226,.F.);
#281 = ORIENTED_EDGE('',*,*,#216,.T.);
#282 = ORIENTED_EDGE('',*,*,#233,.T.);
#283 = FACE_BOUND('',#284,.T.);
#284 = EDGE_LOOP('',(#285));
#285 = ORIENTED_EDGE('',*,*,#286,.T.);
#286 = EDGE_CURVE('',#287,#287,#289,.T.);
#287 = VERTEX_POINT('',#288);
#288 = CARTESIAN_POINT('',(7.34,0.E+000,5.));
#289 = CIRCLE('',#290,0.24);
#290 = AXIS2_PLACEMENT_3D('',#291,#292,#293);
#291 = CARTESIAN_POINT('',(7.1,0.E+000,5.));
#292 = DIRECTION('',(0.E+000,0.E+000,1.));
#293 = DIRECTION('',(1.,0.E+000,0.E+000));
#294 = FACE_BOUND('',#295,.T.);
#295 = EDGE_LOOP('',(#296));
#296 = ORIENTED_EDGE('',*,*,#297,.T.);
#297 = EDGE_CURVE('',#298,#298,#300,.T.);
#298 = VERTEX_POINT('',#299);
#299 = CARTESIAN_POINT('',(0.24,0.E+000,5.));
#300 = CIRCLE('',#301,0.24);
#301 = AXIS2_PLACEMENT_3D('',#302,#303,#304);
#302 = CARTESIAN_POINT('',(0.E+000,0.E+000,5.));
#303 = DIRECTION('',(0.E+000,0.E+000,1.));
#304 = DIRECTION('',(1.,0.E+000,0.E+000));
#305 = PLANE('',#306);
#306 = AXIS2_PLACEMENT_3D('',#307,#308,#309);
#307 = CARTESIAN_POINT('',(3.55,2.22044604925E-015,5.));
#308 = DIRECTION('',(0.E+000,4.440892098501E-016,1.));
#309 = DIRECTION('',(-1.,1.54197642309E-016,-6.847750913377E-032));
#310 = ADVANCED_FACE('',(#311),#333,.T.);
#311 = FACE_BOUND('',#312,.T.);
#312 = EDGE_LOOP('',(#313,#314,#315,#316,#325,#332));
#313 = ORIENTED_EDGE('',*,*,#176,.T.);
#314 = ORIENTED_EDGE('',*,*,#201,.T.);
#315 = ORIENTED_EDGE('',*,*,#265,.F.);
#316 = ORIENTED_EDGE('',*,*,#317,.F.);
#317 = EDGE_CURVE('',#318,#248,#320,.T.);
#318 = VERTEX_POINT('',#319);
#319 = CARTESIAN_POINT('',(-3.068704581102,3.663735981263E-015,5.5));
#320 = CIRCLE('',#321,6.618704581101);
#321 = AXIS2_PLACEMENT_3D('',#322,#323,#324);
#322 = CARTESIAN_POINT('',(3.55,2.442490654175E-015,5.5));
#323 = DIRECTION('',(0.E+000,4.440892098501E-016,1.));
#324 = DIRECTION('',(-1.,1.845142523168E-016,-8.194078851744E-032));
#325 = ORIENTED_EDGE('',*,*,#326,.F.);
#326 = EDGE_CURVE('',#250,#318,#327,.T.);
#327 = CIRCLE('',#328,6.618704581101);
#328 = AXIS2_PLACEMENT_3D('',#329,#330,#331);
#329 = CARTESIAN_POINT('',(3.55,2.442490654175E-015,5.5));
#330 = DIRECTION('',(0.E+000,4.440892098501E-016,1.));
#331 = DIRECTION('',(-1.,1.845142523168E-016,-8.194078851744E-032));
#332 = ORIENTED_EDGE('',*,*,#258,.T.);
#333 = PLANE('',#334);
#334 = AXIS2_PLACEMENT_3D('',#335,#336,#337);
#335 = CARTESIAN_POINT('',(3.55,2.442490654175E-015,5.5));
#336 = DIRECTION('',(0.E+000,4.440892098501E-016,1.));
#337 = DIRECTION('',(-1.,1.6961740654E-016,-7.532526004715E-032));
#338 = ADVANCED_FACE('',(#339),#361,.T.);
#339 = FACE_BOUND('',#340,.T.);
#340 = EDGE_LOOP('',(#341,#350,#351,#352,#353,#354));
#341 = ORIENTED_EDGE('',*,*,#342,.F.);
#342 = EDGE_CURVE('',#318,#343,#345,.T.);
#343 = VERTEX_POINT('',#344);
#344 = CARTESIAN_POINT('',(-3.05,3.676195735226E-015,5.518704581101));
#345 = CIRCLE('',#346,1.87045811015E-002);
#346 = AXIS2_PLACEMENT_3D('',#347,#348,#349);
#347 = CARTESIAN_POINT('',(-3.068704581101,3.676195735226E-015,
    5.518704581101));
#348 = DIRECTION('',(0.E+000,-1.,6.661338147751E-016));
#349 = DIRECTION('',(1.,0.E+000,0.E+000));
#350 = ORIENTED_EDGE('',*,*,#317,.T.);
#351 = ORIENTED_EDGE('',*,*,#247,.T.);
#352 = ORIENTED_EDGE('',*,*,#326,.T.);
#353 = ORIENTED_EDGE('',*,*,#342,.T.);
#354 = ORIENTED_EDGE('',*,*,#355,.F.);
#355 = EDGE_CURVE('',#343,#343,#356,.T.);
#356 = CIRCLE('',#357,6.6);
#357 = AXIS2_PLACEMENT_3D('',#358,#359,#360);
#358 = CARTESIAN_POINT('',(3.55,2.450797156817E-015,5.518704581101));
#359 = DIRECTION('',(0.E+000,4.440892098501E-016,1.));
#360 = DIRECTION('',(-1.,1.85666451274E-016,-8.245246764195E-032));
#361 = SURFACE_OF_REVOLUTION('',#362,#367);
#362 = CIRCLE('',#363,1.87045811015E-002);
#363 = AXIS2_PLACEMENT_3D('',#364,#365,#366);
#364 = CARTESIAN_POINT('',(-3.068704581101,3.676195735226E-015,
    5.518704581101));
#365 = DIRECTION('',(0.E+000,-1.,6.661338147751E-016));
#366 = DIRECTION('',(1.,0.E+000,0.E+000));
#367 = AXIS1_PLACEMENT('',#368,#369);
#368 = CARTESIAN_POINT('',(3.55,1.13272413671E-015,2.550668));
#369 = DIRECTION('',(0.E+000,4.440892098501E-016,1.));
#370 = ADVANCED_FACE('',(#371),#390,.T.);
#371 = FACE_BOUND('',#372,.T.);
#372 = EDGE_LOOP('',(#373,#374,#382,#389));
#373 = ORIENTED_EDGE('',*,*,#286,.F.);
#374 = ORIENTED_EDGE('',*,*,#375,.T.);
#375 = EDGE_CURVE('',#287,#376,#378,.T.);
#376 = VERTEX_POINT('',#377);
#377 = CARTESIAN_POINT('',(7.34,0.E+000,-5.));
#378 = LINE('',#379,#380);
#379 = CARTESIAN_POINT('',(7.34,0.E+000,5.));
#380 = VECTOR('',#381,1.);
#381 = DIRECTION('',(-0.E+000,-0.E+000,-1.));
#382 = ORIENTED_EDGE('',*,*,#383,.T.);
#383 = EDGE_CURVE('',#376,#376,#384,.T.);
#384 = CIRCLE('',#385,0.24);
#385 = AXIS2_PLACEMENT_3D('',#386,#387,#388);
#386 = CARTESIAN_POINT('',(7.1,0.E+000,-5.));
#387 = DIRECTION('',(0.E+000,0.E+000,1.));
#388 = DIRECTION('',(1.,0.E+000,0.E+000));
#389 = ORIENTED_EDGE('',*,*,#375,.F.);
#390 = CYLINDRICAL_SURFACE('',#391,0.24);
#391 = AXIS2_PLACEMENT_3D('',#392,#393,#394);
#392 = CARTESIAN_POINT('',(7.1,0.E+000,5.));
#393 = DIRECTION('',(0.E+000,0.E+000,1.));
#394 = DIRECTION('',(1.,0.E+000,0.E+000));
#395 = ADVANCED_FACE('',(#396),#415,.T.);
#396 = FACE_BOUND('',#397,.T.);
#397 = EDGE_LOOP('',(#398,#399,#407,#414));
#398 = ORIENTED_EDGE('',*,*,#297,.F.);
#399 = ORIENTED_EDGE('',*,*,#400,.T.);
#400 = EDGE_CURVE('',#298,#401,#403,.T.);
#401 = VERTEX_POINT('',#402);
#402 = CARTESIAN_POINT('',(0.24,0.E+000,-5.));
#403 = LINE('',#404,#405);
#404 = CARTESIAN_POINT('',(0.24,0.E+000,5.));
#405 = VECTOR('',#406,1.);
#406 = DIRECTION('',(-0.E+000,-0.E+000,-1.));
#407 = ORIENTED_EDGE('',*,*,#408,.T.);
#408 = EDGE_CURVE('',#401,#401,#409,.T.);
#409 = CIRCLE('',#410,0.24);
#410 = AXIS2_PLACEMENT_3D('',#411,#412,#413);
#411 = CARTESIAN_POINT('',(0.E+000,0.E+000,-5.));
#412 = DIRECTION('',(0.E+000,0.E+000,1.));
#413 = DIRECTION('',(1.,0.E+000,0.E+000));
#414 = ORIENTED_EDGE('',*,*,#400,.F.);
#415 = CYLINDRICAL_SURFACE('',#416,0.24);
#416 = AXIS2_PLACEMENT_3D('',#417,#418,#419);
#417 = CARTESIAN_POINT('',(0.E+000,0.E+000,5.));
#418 = DIRECTION('',(0.E+000,0.E+000,1.));
#419 = DIRECTION('',(1.,0.E+000,0.E+000));
#420 = ADVANCED_FACE('',(#421),#440,.T.);
#421 = FACE_BOUND('',#422,.T.);
#422 = EDGE_LOOP('',(#423,#424,#432,#439));
#423 = ORIENTED_EDGE('',*,*,#355,.T.);
#424 = ORIENTED_EDGE('',*,*,#425,.T.);
#425 = EDGE_CURVE('',#343,#426,#428,.T.);
#426 = VERTEX_POINT('',#427);
#427 = CARTESIAN_POINT('',(-3.05,8.459899447644E-015,12.7));
#428 = LINE('',#429,#430);
#429 = CARTESIAN_POINT('',(-3.05,3.676195735226E-015,5.518704581101));
#430 = VECTOR('',#431,1.);
#431 = DIRECTION('',(0.E+000,6.661338147751E-016,1.));
#432 = ORIENTED_EDGE('',*,*,#433,.F.);
#433 = EDGE_CURVE('',#426,#426,#434,.T.);
#434 = CIRCLE('',#435,6.6);
#435 = AXIS2_PLACEMENT_3D('',#436,#437,#438);
#436 = CARTESIAN_POINT('',(3.55,5.639932965096E-015,12.7));
#437 = DIRECTION('',(0.E+000,4.440892098501E-016,1.));
#438 = DIRECTION('',(-1.,4.272676488709E-016,-1.897449525816E-031));
#439 = ORIENTED_EDGE('',*,*,#425,.F.);
#440 = CYLINDRICAL_SURFACE('',#441,6.6);
#441 = AXIS2_PLACEMENT_3D('',#442,#443,#444);
#442 = CARTESIAN_POINT('',(3.55,2.450797156817E-015,5.518704581101));
#443 = DIRECTION('',(0.E+000,4.440892098501E-016,1.));
#444 = DIRECTION('',(-1.,1.85666451274E-016,-8.245246764195E-032));
#445 = ADVANCED_FACE('',(#446),#449,.T.);
#446 = FACE_BOUND('',#447,.F.);
#447 = EDGE_LOOP('',(#448));
#448 = ORIENTED_EDGE('',*,*,#383,.T.);
#449 = PLANE('',#450);
#450 = AXIS2_PLACEMENT_3D('',#451,#452,#453);
#451 = CARTESIAN_POINT('',(7.34,0.E+000,-5.));
#452 = DIRECTION('',(0.E+000,0.E+000,-1.));
#453 = DIRECTION('',(-1.,0.E+000,0.E+000));
#454 = ADVANCED_FACE('',(#455),#458,.T.);
#455 = FACE_BOUND('',#456,.F.);
#456 = EDGE_LOOP('',(#457));
#457 = ORIENTED_EDGE('',*,*,#408,.T.);
#458 = PLANE('',#459);
#459 = AXIS2_PLACEMENT_3D('',#460,#461,#462);
#460 = CARTESIAN_POINT('',(0.24,0.E+000,-5.));
#461 = DIRECTION('',(0.E+000,0.E+000,-1.));
#462 = DIRECTION('',(-1.,0.E+000,0.E+000));
#463 = ADVANCED_FACE('',(#464),#484,.F.);
#464 = FACE_BOUND('',#465,.F.);
#465 = EDGE_LOOP('',(#466,#475,#482,#483));
#466 = ORIENTED_EDGE('',*,*,#467,.T.);
#467 = EDGE_CURVE('',#468,#468,#470,.T.);
#468 = VERTEX_POINT('',#469);
#469 = CARTESIAN_POINT('',(-2.55,8.792966355031E-015,13.2));
#470 = CIRCLE('',#471,6.1);
#471 = AXIS2_PLACEMENT_3D('',#472,#473,#474);
#472 = CARTESIAN_POINT('',(3.55,5.861977570021E-015,13.2));
#473 = DIRECTION('',(0.E+000,4.440892098501E-016,1.));
#474 = DIRECTION('',(-1.,4.804899647558E-016,-2.133804087893E-031));
#475 = ORIENTED_EDGE('',*,*,#476,.T.);
#476 = EDGE_CURVE('',#468,#426,#477,.T.);
#477 = CIRCLE('',#478,0.5);
#478 = AXIS2_PLACEMENT_3D('',#479,#480,#481);
#479 = CARTESIAN_POINT('',(-2.55,8.459899447644E-015,12.7));
#480 = DIRECTION('',(0.E+000,-1.,6.661338147751E-016));
#481 = DIRECTION('',(1.,0.E+000,0.E+000));
#482 = ORIENTED_EDGE('',*,*,#433,.F.);
#483 = ORIENTED_EDGE('',*,*,#476,.F.);
#484 = SURFACE_OF_REVOLUTION('',#485,#490);
#485 = CIRCLE('',#486,0.5);
#486 = AXIS2_PLACEMENT_3D('',#487,#488,#489);
#487 = CARTESIAN_POINT('',(-2.55,8.459899447644E-015,12.7));
#488 = DIRECTION('',(0.E+000,-1.,6.661338147751E-016));
#489 = DIRECTION('',(1.,0.E+000,0.E+000));
#490 = AXIS1_PLACEMENT('',#491,#492);
#491 = CARTESIAN_POINT('',(3.55,1.13272413671E-015,2.550668));
#492 = DIRECTION('',(0.E+000,4.440892098501E-016,1.));
#493 = ADVANCED_FACE('',(#494),#497,.T.);
#494 = FACE_BOUND('',#495,.T.);
#495 = EDGE_LOOP('',(#496));
#496 = ORIENTED_EDGE('',*,*,#467,.T.);
#497 = PLANE('',#498);
#498 = AXIS2_PLACEMENT_3D('',#499,#500,#501);
#499 = CARTESIAN_POINT('',(3.55,5.861977570021E-015,13.2));
#500 = DIRECTION('',(0.E+000,4.440892098501E-016,1.));
#501 = DIRECTION('',(-1.,4.804899647558E-016,-2.133804087893E-031));
#502 = ( GEOMETRIC_REPRESENTATION_CONTEXT(3) 
GLOBAL_UNCERTAINTY_ASSIGNED_CONTEXT((#506)) GLOBAL_UNIT_ASSIGNED_CONTEXT
((#503,#504,#505)) REPRESENTATION_CONTEXT('Context #1',
  '3D Context with UNIT and UNCERTAINTY') );
#503 = ( LENGTH_UNIT() NAMED_UNIT(*) SI_UNIT(.MILLI.,.METRE.) );
#504 = ( NAMED_UNIT(*) PLANE_ANGLE_UNIT() SI_UNIT($,.RADIAN.) );
#505 = ( NAMED_UNIT(*) SI_UNIT($,.STERADIAN.) SOLID_ANGLE_UNIT() );
#506 = UNCERTAINTY_MEASURE_WITH_UNIT(LENGTH_MEASURE(1.E-007),#503,
  'distance_accuracy_value','confusion accuracy');
#507 = PRODUCT_TYPE('part',$,(#7));
#508 = MECHANICAL_DESIGN_GEOMETRIC_PRESENTATION_REPRESENTATION('',(#509,
    #517,#524,#531,#538,#545,#552,#559,#566,#573,#580,#587,#594,#602,
    #609,#616,#623,#630,#637),#502);
#509 = STYLED_ITEM('color',(#510),#17);
#510 = PRESENTATION_STYLE_ASSIGNMENT((#511));
#511 = SURFACE_STYLE_USAGE(.BOTH.,#512);
#512 = SURFACE_SIDE_STYLE('',(#513));
#513 = SURFACE_STYLE_FILL_AREA(#514);
#514 = FILL_AREA_STYLE('',(#515));
#515 = FILL_AREA_STYLE_COLOUR('',#516);
#516 = COLOUR_RGB('',0.40000000596,0.40000000596,0.40000000596);
#517 = STYLED_ITEM('color',(#518),#57);
#518 = PRESENTATION_STYLE_ASSIGNMENT((#519));
#519 = SURFACE_STYLE_USAGE(.BOTH.,#520);
#520 = SURFACE_SIDE_STYLE('',(#521));
#521 = SURFACE_STYLE_FILL_AREA(#522);
#522 = FILL_AREA_STYLE('',(#523));
#523 = FILL_AREA_STYLE_COLOUR('',#516);
#524 = STYLED_ITEM('color',(#525),#88);
#525 = PRESENTATION_STYLE_ASSIGNMENT((#526));
#526 = SURFACE_STYLE_USAGE(.BOTH.,#527);
#527 = SURFACE_SIDE_STYLE('',(#528));
#528 = SURFACE_STYLE_FILL_AREA(#529);
#529 = FILL_AREA_STYLE('',(#530));
#530 = FILL_AREA_STYLE_COLOUR('',#516);
#531 = STYLED_ITEM('color',(#532),#119);
#532 = PRESENTATION_STYLE_ASSIGNMENT((#533));
#533 = SURFACE_STYLE_USAGE(.BOTH.,#534);
#534 = SURFACE_SIDE_STYLE('',(#535));
#535 = SURFACE_STYLE_FILL_AREA(#536);
#536 = FILL_AREA_STYLE('',(#537));
#537 = FILL_AREA_STYLE_COLOUR('',#516);
#538 = STYLED_ITEM('color',(#539),#137);
#539 = PRESENTATION_STYLE_ASSIGNMENT((#540));
#540 = SURFACE_STYLE_USAGE(.BOTH.,#541);
#541 = SURFACE_SIDE_STYLE('',(#542));
#542 = SURFACE_STYLE_FILL_AREA(#543);
#543 = FILL_AREA_STYLE('',(#544));
#544 = FILL_AREA_STYLE_COLOUR('',#516);
#545 = STYLED_ITEM('color',(#546),#155);
#546 = PRESENTATION_STYLE_ASSIGNMENT((#547));
#547 = SURFACE_STYLE_USAGE(.BOTH.,#548);
#548 = SURFACE_SIDE_STYLE('',(#549));
#549 = SURFACE_STYLE_FILL_AREA(#550);
#550 = FILL_AREA_STYLE('',(#551));
#551 = FILL_AREA_STYLE_COLOUR('',#516);
#552 = STYLED_ITEM('color',(#553),#188);
#553 = PRESENTATION_STYLE_ASSIGNMENT((#554));
#554 = SURFACE_STYLE_USAGE(.BOTH.,#555);
#555 = SURFACE_SIDE_STYLE('',(#556));
#556 = SURFACE_STYLE_FILL_AREA(#557);
#557 = FILL_AREA_STYLE('',(#558));
#558 = FILL_AREA_STYLE_COLOUR('',#516);
#559 = STYLED_ITEM('color',(#560),#212);
#560 = PRESENTATION_STYLE_ASSIGNMENT((#561));
#561 = SURFACE_STYLE_USAGE(.BOTH.,#562);
#562 = SURFACE_SIDE_STYLE('',(#563));
#563 = SURFACE_STYLE_FILL_AREA(#564);
#564 = FILL_AREA_STYLE('',(#565));
#565 = FILL_AREA_STYLE_COLOUR('',#516);
#566 = STYLED_ITEM('color',(#567),#243);
#567 = PRESENTATION_STYLE_ASSIGNMENT((#568));
#568 = SURFACE_STYLE_USAGE(.BOTH.,#569);
#569 = SURFACE_SIDE_STYLE('',(#570));
#570 = SURFACE_STYLE_FILL_AREA(#571);
#571 = FILL_AREA_STYLE('',(#572));
#572 = FILL_AREA_STYLE_COLOUR('',#516);
#573 = STYLED_ITEM('color',(#574),#275);
#574 = PRESENTATION_STYLE_ASSIGNMENT((#575));
#575 = SURFACE_STYLE_USAGE(.BOTH.,#576);
#576 = SURFACE_SIDE_STYLE('',(#577));
#577 = SURFACE_STYLE_FILL_AREA(#578);
#578 = FILL_AREA_STYLE('',(#579));
#579 = FILL_AREA_STYLE_COLOUR('',#516);
#580 = STYLED_ITEM('color',(#581),#310);
#581 = PRESENTATION_STYLE_ASSIGNMENT((#582));
#582 = SURFACE_STYLE_USAGE(.BOTH.,#583);
#583 = SURFACE_SIDE_STYLE('',(#584));
#584 = SURFACE_STYLE_FILL_AREA(#585);
#585 = FILL_AREA_STYLE('',(#586));
#586 = FILL_AREA_STYLE_COLOUR('',#516);
#587 = STYLED_ITEM('color',(#588),#338);
#588 = PRESENTATION_STYLE_ASSIGNMENT((#589));
#589 = SURFACE_STYLE_USAGE(.BOTH.,#590);
#590 = SURFACE_SIDE_STYLE('',(#591));
#591 = SURFACE_STYLE_FILL_AREA(#592);
#592 = FILL_AREA_STYLE('',(#593));
#593 = FILL_AREA_STYLE_COLOUR('',#516);
#594 = STYLED_ITEM('color',(#595),#370);
#595 = PRESENTATION_STYLE_ASSIGNMENT((#596));
#596 = SURFACE_STYLE_USAGE(.BOTH.,#597);
#597 = SURFACE_SIDE_STYLE('',(#598));
#598 = SURFACE_STYLE_FILL_AREA(#599);
#599 = FILL_AREA_STYLE('',(#600));
#600 = FILL_AREA_STYLE_COLOUR('',#601);
#601 = COLOUR_RGB('',0.85900002718,0.737999975681,0.495999991894);
#602 = STYLED_ITEM('color',(#603),#395);
#603 = PRESENTATION_STYLE_ASSIGNMENT((#604));
#604 = SURFACE_STYLE_USAGE(.BOTH.,#605);
#605 = SURFACE_SIDE_STYLE('',(#606));
#606 = SURFACE_STYLE_FILL_AREA(#607);
#607 = FILL_AREA_STYLE('',(#608));
#608 = FILL_AREA_STYLE_COLOUR('',#601);
#609 = STYLED_ITEM('color',(#610),#420);
#610 = PRESENTATION_STYLE_ASSIGNMENT((#611));
#611 = SURFACE_STYLE_USAGE(.BOTH.,#612);
#612 = SURFACE_SIDE_STYLE('',(#613));
#613 = SURFACE_STYLE_FILL_AREA(#614);
#614 = FILL_AREA_STYLE('',(#615));
#615 = FILL_AREA_STYLE_COLOUR('',#516);
#616 = STYLED_ITEM('color',(#617),#445);
#617 = PRESENTATION_STYLE_ASSIGNMENT((#618));
#618 = SURFACE_STYLE_USAGE(.BOTH.,#619);
#619 = SURFACE_SIDE_STYLE('',(#620));
#620 = SURFACE_STYLE_FILL_AREA(#621);
#621 = FILL_AREA_STYLE('',(#622));
#622 = FILL_AREA_STYLE_COLOUR('',#601);
#623 = STYLED_ITEM('color',(#624),#454);
#624 = PRESENTATION_STYLE_ASSIGNMENT((#625));
#625 = SURFACE_STYLE_USAGE(.BOTH.,#626);
#626 = SURFACE_SIDE_STYLE('',(#627));
#627 = SURFACE_STYLE_FILL_AREA(#628);
#628 = FILL_AREA_STYLE('',(#629));
#629 = FILL_AREA_STYLE_COLOUR('',#601);
#630 = STYLED_ITEM('color',(#631),#463);
#631 = PRESENTATION_STYLE_ASSIGNMENT((#632));
#632 = SURFACE_STYLE_USAGE(.BOTH.,#633);
#633 = SURFACE_SIDE_STYLE('',(#634));
#634 = SURFACE_STYLE_FILL_AREA(#635);
#635 = FILL_AREA_STYLE('',(#636));
#636 = FILL_AREA_STYLE_COLOUR('',#516);
#637 = STYLED_ITEM('color',(#638),#493);
#638 = PRESENTATION_STYLE_ASSIGNMENT((#639));
#639 = SURFACE_STYLE_USAGE(.BOTH.,#640);
#640 = SURFACE_SIDE_STYLE('',(#641));
#641 = SURFACE_STYLE_FILL_AREA(#642);
#642 = FILL_AREA_STYLE('',(#643));
#643 = FILL_AREA_STYLE_COLOUR('',#516);
ENDSEC;
END-ISO-10303-21;
