ISO-10303-21;
HEADER;
FILE_DESCRIPTION(('FreeCAD Model'),'2;1');
FILE_NAME(
  'D:/KiCAD/packages3D-source/LED_THT.3dshapes\\LED_D5.0mm_FlatTop.step'
  ,'2017-11-25T21:45:00',('kicad StepUp'),('ksu MCAD'),
  'Open CASCADE STEP processor 6.8','FreeCAD','Unknown');
FILE_SCHEMA(('AUTOMOTIVE_DESIGN_CC2 { 1 2 10303 214 -1 1 5 4 }'));
ENDSEC;
DATA;
#1 = APPLICATION_PROTOCOL_DEFINITION('committee draft',
  'automotive_design',1997,#2);
#2 = APPLICATION_CONTEXT(
  'core data for automotive mechanical design processes');
#3 = SHAPE_DEFINITION_REPRESENTATION(#4,#10);
#4 = PRODUCT_DEFINITION_SHAPE('','',#5);
#5 = PRODUCT_DEFINITION('design','',#6,#9);
#6 = PRODUCT_DEFINITION_FORMATION('','',#7);
#7 = PRODUCT('LED_D5.0mm_FlatTop','LED_D5.0mm_FlatTop','',(#8));
#8 = MECHANICAL_CONTEXT('',#2,'mechanical');
#9 = PRODUCT_DEFINITION_CONTEXT('part definition',#2,'design');
#10 = ADVANCED_BREP_SHAPE_REPRESENTATION('',(#11,#15),#447);
#11 = AXIS2_PLACEMENT_3D('',#12,#13,#14);
#12 = CARTESIAN_POINT('',(0.E+000,0.E+000,0.E+000));
#13 = DIRECTION('',(0.E+000,0.E+000,1.));
#14 = DIRECTION('',(1.,0.E+000,-0.E+000));
#15 = MANIFOLD_SOLID_BREP('',#16);
#16 = CLOSED_SHELL('',(#17,#34,#68,#103,#135,#153,#231,#262,#286,#310,
    #327,#358,#382,#406,#423,#435));
#17 = ADVANCED_FACE('',(#18),#29,.F.);
#18 = FACE_BOUND('',#19,.T.);
#19 = EDGE_LOOP('',(#20));
#20 = ORIENTED_EDGE('',*,*,#21,.F.);
#21 = EDGE_CURVE('',#22,#22,#24,.T.);
#22 = VERTEX_POINT('',#23);
#23 = CARTESIAN_POINT('',(3.77,8.393286066166E-015,12.6));
#24 = CIRCLE('',#25,2.5);
#25 = AXIS2_PLACEMENT_3D('',#26,#27,#28);
#26 = CARTESIAN_POINT('',(1.27,5.595524044111E-015,12.6));
#27 = DIRECTION('',(0.E+000,-4.440892098501E-016,-1.));
#28 = DIRECTION('',(1.,1.119104808822E-015,-4.969823702892E-031));
#29 = PLANE('',#30);
#30 = AXIS2_PLACEMENT_3D('',#31,#32,#33);
#31 = CARTESIAN_POINT('',(1.27,5.595524044111E-015,12.6));
#32 = DIRECTION('',(0.E+000,-4.440892098501E-016,-1.));
#33 = DIRECTION('',(1.,1.119104808822E-015,-4.969823702892E-031));
#34 = ADVANCED_FACE('',(#35),#63,.T.);
#35 = FACE_BOUND('',#36,.T.);
#36 = EDGE_LOOP('',(#37,#45,#46,#47,#56));
#37 = ORIENTED_EDGE('',*,*,#38,.F.);
#38 = EDGE_CURVE('',#22,#39,#41,.T.);
#39 = VERTEX_POINT('',#40);
#40 = CARTESIAN_POINT('',(3.77,2.6645352591E-015,4.));
#41 = LINE('',#42,#43);
#42 = CARTESIAN_POINT('',(3.77,8.393286066166E-015,12.6));
#43 = VECTOR('',#44,1.);
#44 = DIRECTION('',(0.E+000,-6.661338147751E-016,-1.));
#45 = ORIENTED_EDGE('',*,*,#21,.T.);
#46 = ORIENTED_EDGE('',*,*,#38,.T.);
#47 = ORIENTED_EDGE('',*,*,#48,.F.);
#48 = EDGE_CURVE('',#49,#39,#51,.T.);
#49 = VERTEX_POINT('',#50);
#50 = CARTESIAN_POINT('',(-1.23,-7.739937184268E-008,4.));
#51 = CIRCLE('',#52,2.5);
#52 = AXIS2_PLACEMENT_3D('',#53,#54,#55);
#53 = CARTESIAN_POINT('',(1.27,1.7763568394E-015,4.));
#54 = DIRECTION('',(0.E+000,-4.440892098501E-016,-1.));
#55 = DIRECTION('',(1.,3.552713678801E-016,-1.577721810442E-031));
#56 = ORIENTED_EDGE('',*,*,#57,.F.);
#57 = EDGE_CURVE('',#39,#49,#58,.T.);
#58 = CIRCLE('',#59,2.5);
#59 = AXIS2_PLACEMENT_3D('',#60,#61,#62);
#60 = CARTESIAN_POINT('',(1.27,1.7763568394E-015,4.));
#61 = DIRECTION('',(0.E+000,-4.440892098501E-016,-1.));
#62 = DIRECTION('',(1.,3.552713678801E-016,-1.577721810442E-031));
#63 = CYLINDRICAL_SURFACE('',#64,2.5);
#64 = AXIS2_PLACEMENT_3D('',#65,#66,#67);
#65 = CARTESIAN_POINT('',(1.27,5.595524044111E-015,12.6));
#66 = DIRECTION('',(0.E+000,-4.440892098501E-016,-1.));
#67 = DIRECTION('',(1.,1.119104808822E-015,-4.969823702892E-031));
#68 = ADVANCED_FACE('',(#69,#94),#98,.F.);
#69 = FACE_BOUND('',#70,.F.);
#70 = EDGE_LOOP('',(#71,#82,#88));
#71 = ORIENTED_EDGE('',*,*,#72,.F.);
#72 = EDGE_CURVE('',#73,#75,#77,.T.);
#73 = VERTEX_POINT('',#74);
#74 = CARTESIAN_POINT('',(-1.23,-1.566045976337,4.));
#75 = VERTEX_POINT('',#76);
#76 = CARTESIAN_POINT('',(-1.23,1.566045976337,4.));
#77 = CIRCLE('',#78,2.95);
#78 = AXIS2_PLACEMENT_3D('',#79,#80,#81);
#79 = CARTESIAN_POINT('',(1.27,0.E+000,4.));
#80 = DIRECTION('',(0.E+000,0.E+000,1.));
#81 = DIRECTION('',(1.,0.E+000,0.E+000));
#82 = ORIENTED_EDGE('',*,*,#83,.T.);
#83 = EDGE_CURVE('',#73,#49,#84,.T.);
#84 = LINE('',#85,#86);
#85 = CARTESIAN_POINT('',(-1.23,-1.566045976337,4.));
#86 = VECTOR('',#87,1.);
#87 = DIRECTION('',(0.E+000,1.,0.E+000));
#88 = ORIENTED_EDGE('',*,*,#89,.T.);
#89 = EDGE_CURVE('',#49,#75,#90,.T.);
#90 = LINE('',#91,#92);
#91 = CARTESIAN_POINT('',(-1.23,-1.566045976337,4.));
#92 = VECTOR('',#93,1.);
#93 = DIRECTION('',(0.E+000,1.,0.E+000));
#94 = FACE_BOUND('',#95,.F.);
#95 = EDGE_LOOP('',(#96,#97));
#96 = ORIENTED_EDGE('',*,*,#48,.F.);
#97 = ORIENTED_EDGE('',*,*,#57,.F.);
#98 = PLANE('',#99);
#99 = AXIS2_PLACEMENT_3D('',#100,#101,#102);
#100 = CARTESIAN_POINT('',(-1.23,-1.566045976337,4.));
#101 = DIRECTION('',(0.E+000,0.E+000,-1.));
#102 = DIRECTION('',(-1.,0.E+000,0.E+000));
#103 = ADVANCED_FACE('',(#104),#130,.T.);
#104 = FACE_BOUND('',#105,.F.);
#105 = EDGE_LOOP('',(#106,#114,#115,#123));
#106 = ORIENTED_EDGE('',*,*,#107,.T.);
#107 = EDGE_CURVE('',#108,#73,#110,.T.);
#108 = VERTEX_POINT('',#109);
#109 = CARTESIAN_POINT('',(-1.23,-1.566045976337,3.));
#110 = LINE('',#111,#112);
#111 = CARTESIAN_POINT('',(-1.23,-1.566045976337,3.));
#112 = VECTOR('',#113,1.);
#113 = DIRECTION('',(0.E+000,0.E+000,1.));
#114 = ORIENTED_EDGE('',*,*,#72,.T.);
#115 = ORIENTED_EDGE('',*,*,#116,.F.);
#116 = EDGE_CURVE('',#117,#75,#119,.T.);
#117 = VERTEX_POINT('',#118);
#118 = CARTESIAN_POINT('',(-1.23,1.566045976337,3.));
#119 = LINE('',#120,#121);
#120 = CARTESIAN_POINT('',(-1.23,1.566045976337,3.));
#121 = VECTOR('',#122,1.);
#122 = DIRECTION('',(0.E+000,0.E+000,1.));
#123 = ORIENTED_EDGE('',*,*,#124,.F.);
#124 = EDGE_CURVE('',#108,#117,#125,.T.);
#125 = CIRCLE('',#126,2.95);
#126 = AXIS2_PLACEMENT_3D('',#127,#128,#129);
#127 = CARTESIAN_POINT('',(1.27,0.E+000,3.));
#128 = DIRECTION('',(0.E+000,0.E+000,1.));
#129 = DIRECTION('',(1.,0.E+000,0.E+000));
#130 = CYLINDRICAL_SURFACE('',#131,2.95);
#131 = AXIS2_PLACEMENT_3D('',#132,#133,#134);
#132 = CARTESIAN_POINT('',(1.27,0.E+000,3.));
#133 = DIRECTION('',(-0.E+000,-0.E+000,-1.));
#134 = DIRECTION('',(1.,0.E+000,0.E+000));
#135 = ADVANCED_FACE('',(#136),#148,.T.);
#136 = FACE_BOUND('',#137,.T.);
#137 = EDGE_LOOP('',(#138,#139,#140,#141,#142));
#138 = ORIENTED_EDGE('',*,*,#107,.T.);
#139 = ORIENTED_EDGE('',*,*,#83,.T.);
#140 = ORIENTED_EDGE('',*,*,#89,.T.);
#141 = ORIENTED_EDGE('',*,*,#116,.F.);
#142 = ORIENTED_EDGE('',*,*,#143,.F.);
#143 = EDGE_CURVE('',#108,#117,#144,.T.);
#144 = LINE('',#145,#146);
#145 = CARTESIAN_POINT('',(-1.23,-1.566045976337,3.));
#146 = VECTOR('',#147,1.);
#147 = DIRECTION('',(0.E+000,1.,0.E+000));
#148 = PLANE('',#149);
#149 = AXIS2_PLACEMENT_3D('',#150,#151,#152);
#150 = CARTESIAN_POINT('',(-1.23,-1.566045976337,3.));
#151 = DIRECTION('',(-1.,0.E+000,0.E+000));
#152 = DIRECTION('',(0.E+000,1.,0.E+000));
#153 = ADVANCED_FACE('',(#154,#158,#192),#226,.T.);
#154 = FACE_BOUND('',#155,.T.);
#155 = EDGE_LOOP('',(#156,#157));
#156 = ORIENTED_EDGE('',*,*,#124,.F.);
#157 = ORIENTED_EDGE('',*,*,#143,.T.);
#158 = FACE_BOUND('',#159,.T.);
#159 = EDGE_LOOP('',(#160,#170,#178,#186));
#160 = ORIENTED_EDGE('',*,*,#161,.T.);
#161 = EDGE_CURVE('',#162,#164,#166,.T.);
#162 = VERTEX_POINT('',#163);
#163 = CARTESIAN_POINT('',(-0.2,-0.2,3.));
#164 = VERTEX_POINT('',#165);
#165 = CARTESIAN_POINT('',(0.2,-0.2,3.));
#166 = LINE('',#167,#168);
#167 = CARTESIAN_POINT('',(-0.515,-0.2,3.));
#168 = VECTOR('',#169,1.);
#169 = DIRECTION('',(1.,0.E+000,0.E+000));
#170 = ORIENTED_EDGE('',*,*,#171,.T.);
#171 = EDGE_CURVE('',#164,#172,#174,.T.);
#172 = VERTEX_POINT('',#173);
#173 = CARTESIAN_POINT('',(0.2,0.2,3.));
#174 = LINE('',#175,#176);
#175 = CARTESIAN_POINT('',(0.2,-0.683022988168,3.));
#176 = VECTOR('',#177,1.);
#177 = DIRECTION('',(0.E+000,1.,0.E+000));
#178 = ORIENTED_EDGE('',*,*,#179,.T.);
#179 = EDGE_CURVE('',#172,#180,#182,.T.);
#180 = VERTEX_POINT('',#181);
#181 = CARTESIAN_POINT('',(-0.2,0.2,3.));
#182 = LINE('',#183,#184);
#183 = CARTESIAN_POINT('',(-0.715,0.2,3.));
#184 = VECTOR('',#185,1.);
#185 = DIRECTION('',(-1.,-0.E+000,-0.E+000));
#186 = ORIENTED_EDGE('',*,*,#187,.T.);
#187 = EDGE_CURVE('',#180,#162,#188,.T.);
#188 = LINE('',#189,#190);
#189 = CARTESIAN_POINT('',(-0.2,-0.883022988168,3.));
#190 = VECTOR('',#191,1.);
#191 = DIRECTION('',(0.E+000,-1.,0.E+000));
#192 = FACE_BOUND('',#193,.T.);
#193 = EDGE_LOOP('',(#194,#204,#212,#220));
#194 = ORIENTED_EDGE('',*,*,#195,.T.);
#195 = EDGE_CURVE('',#196,#198,#200,.T.);
#196 = VERTEX_POINT('',#197);
#197 = CARTESIAN_POINT('',(2.34,0.2,3.));
#198 = VERTEX_POINT('',#199);
#199 = CARTESIAN_POINT('',(2.34,-0.2,3.));
#200 = LINE('',#201,#202);
#201 = CARTESIAN_POINT('',(2.34,-0.883022988168,3.));
#202 = VECTOR('',#203,1.);
#203 = DIRECTION('',(0.E+000,-1.,0.E+000));
#204 = ORIENTED_EDGE('',*,*,#205,.T.);
#205 = EDGE_CURVE('',#198,#206,#208,.T.);
#206 = VERTEX_POINT('',#207);
#207 = CARTESIAN_POINT('',(2.74,-0.2,3.));
#208 = LINE('',#209,#210);
#209 = CARTESIAN_POINT('',(0.755,-0.2,3.));
#210 = VECTOR('',#211,1.);
#211 = DIRECTION('',(1.,0.E+000,0.E+000));
#212 = ORIENTED_EDGE('',*,*,#213,.T.);
#213 = EDGE_CURVE('',#206,#214,#216,.T.);
#214 = VERTEX_POINT('',#215);
#215 = CARTESIAN_POINT('',(2.74,0.2,3.));
#216 = LINE('',#217,#218);
#217 = CARTESIAN_POINT('',(2.74,-0.683022988168,3.));
#218 = VECTOR('',#219,1.);
#219 = DIRECTION('',(0.E+000,1.,0.E+000));
#220 = ORIENTED_EDGE('',*,*,#221,.T.);
#221 = EDGE_CURVE('',#214,#196,#222,.T.);
#222 = LINE('',#223,#224);
#223 = CARTESIAN_POINT('',(0.555,0.2,3.));
#224 = VECTOR('',#225,1.);
#225 = DIRECTION('',(-1.,-0.E+000,-0.E+000));
#226 = PLANE('',#227);
#227 = AXIS2_PLACEMENT_3D('',#228,#229,#230);
#228 = CARTESIAN_POINT('',(-1.23,-1.566045976337,3.));
#229 = DIRECTION('',(0.E+000,0.E+000,-1.));
#230 = DIRECTION('',(-1.,0.E+000,0.E+000));
#231 = ADVANCED_FACE('',(#232),#257,.F.);
#232 = FACE_BOUND('',#233,.F.);
#233 = EDGE_LOOP('',(#234,#235,#243,#251));
#234 = ORIENTED_EDGE('',*,*,#161,.T.);
#235 = ORIENTED_EDGE('',*,*,#236,.T.);
#236 = EDGE_CURVE('',#164,#237,#239,.T.);
#237 = VERTEX_POINT('',#238);
#238 = CARTESIAN_POINT('',(0.2,-0.2,-1.5));
#239 = LINE('',#240,#241);
#240 = CARTESIAN_POINT('',(0.2,-0.2,3.5));
#241 = VECTOR('',#242,1.);
#242 = DIRECTION('',(-0.E+000,-0.E+000,-1.));
#243 = ORIENTED_EDGE('',*,*,#244,.T.);
#244 = EDGE_CURVE('',#237,#245,#247,.T.);
#245 = VERTEX_POINT('',#246);
#246 = CARTESIAN_POINT('',(-0.2,-0.2,-1.5));
#247 = LINE('',#248,#249);
#248 = CARTESIAN_POINT('',(0.2,-0.2,-1.5));
#249 = VECTOR('',#250,1.);
#250 = DIRECTION('',(-1.,0.E+000,0.E+000));
#251 = ORIENTED_EDGE('',*,*,#252,.F.);
#252 = EDGE_CURVE('',#162,#245,#253,.T.);
#253 = LINE('',#254,#255);
#254 = CARTESIAN_POINT('',(-0.2,-0.2,3.5));
#255 = VECTOR('',#256,1.);
#256 = DIRECTION('',(-0.E+000,-0.E+000,-1.));
#257 = PLANE('',#258);
#258 = AXIS2_PLACEMENT_3D('',#259,#260,#261);
#259 = CARTESIAN_POINT('',(0.2,-0.2,3.5));
#260 = DIRECTION('',(0.E+000,1.,0.E+000));
#261 = DIRECTION('',(-1.,0.E+000,0.E+000));
#262 = ADVANCED_FACE('',(#263),#281,.F.);
#263 = FACE_BOUND('',#264,.F.);
#264 = EDGE_LOOP('',(#265,#266,#267,#275));
#265 = ORIENTED_EDGE('',*,*,#187,.T.);
#266 = ORIENTED_EDGE('',*,*,#252,.T.);
#267 = ORIENTED_EDGE('',*,*,#268,.T.);
#268 = EDGE_CURVE('',#245,#269,#271,.T.);
#269 = VERTEX_POINT('',#270);
#270 = CARTESIAN_POINT('',(-0.2,0.2,-1.5));
#271 = LINE('',#272,#273);
#272 = CARTESIAN_POINT('',(-0.2,-0.2,-1.5));
#273 = VECTOR('',#274,1.);
#274 = DIRECTION('',(0.E+000,1.,0.E+000));
#275 = ORIENTED_EDGE('',*,*,#276,.F.);
#276 = EDGE_CURVE('',#180,#269,#277,.T.);
#277 = LINE('',#278,#279);
#278 = CARTESIAN_POINT('',(-0.2,0.2,3.5));
#279 = VECTOR('',#280,1.);
#280 = DIRECTION('',(-0.E+000,-0.E+000,-1.));
#281 = PLANE('',#282);
#282 = AXIS2_PLACEMENT_3D('',#283,#284,#285);
#283 = CARTESIAN_POINT('',(-0.2,-0.2,3.5));
#284 = DIRECTION('',(1.,0.E+000,0.E+000));
#285 = DIRECTION('',(0.E+000,1.,0.E+000));
#286 = ADVANCED_FACE('',(#287),#305,.F.);
#287 = FACE_BOUND('',#288,.F.);
#288 = EDGE_LOOP('',(#289,#290,#291,#299));
#289 = ORIENTED_EDGE('',*,*,#179,.T.);
#290 = ORIENTED_EDGE('',*,*,#276,.T.);
#291 = ORIENTED_EDGE('',*,*,#292,.T.);
#292 = EDGE_CURVE('',#269,#293,#295,.T.);
#293 = VERTEX_POINT('',#294);
#294 = CARTESIAN_POINT('',(0.2,0.2,-1.5));
#295 = LINE('',#296,#297);
#296 = CARTESIAN_POINT('',(-0.2,0.2,-1.5));
#297 = VECTOR('',#298,1.);
#298 = DIRECTION('',(1.,0.E+000,0.E+000));
#299 = ORIENTED_EDGE('',*,*,#300,.F.);
#300 = EDGE_CURVE('',#172,#293,#301,.T.);
#301 = LINE('',#302,#303);
#302 = CARTESIAN_POINT('',(0.2,0.2,3.5));
#303 = VECTOR('',#304,1.);
#304 = DIRECTION('',(-0.E+000,-0.E+000,-1.));
#305 = PLANE('',#306);
#306 = AXIS2_PLACEMENT_3D('',#307,#308,#309);
#307 = CARTESIAN_POINT('',(-0.2,0.2,3.5));
#308 = DIRECTION('',(0.E+000,-1.,0.E+000));
#309 = DIRECTION('',(1.,0.E+000,0.E+000));
#310 = ADVANCED_FACE('',(#311),#322,.F.);
#311 = FACE_BOUND('',#312,.F.);
#312 = EDGE_LOOP('',(#313,#314,#315,#321));
#313 = ORIENTED_EDGE('',*,*,#171,.T.);
#314 = ORIENTED_EDGE('',*,*,#300,.T.);
#315 = ORIENTED_EDGE('',*,*,#316,.T.);
#316 = EDGE_CURVE('',#293,#237,#317,.T.);
#317 = LINE('',#318,#319);
#318 = CARTESIAN_POINT('',(0.2,0.2,-1.5));
#319 = VECTOR('',#320,1.);
#320 = DIRECTION('',(0.E+000,-1.,0.E+000));
#321 = ORIENTED_EDGE('',*,*,#236,.F.);
#322 = PLANE('',#323);
#323 = AXIS2_PLACEMENT_3D('',#324,#325,#326);
#324 = CARTESIAN_POINT('',(0.2,0.2,3.5));
#325 = DIRECTION('',(-1.,0.E+000,0.E+000));
#326 = DIRECTION('',(0.E+000,-1.,0.E+000));
#327 = ADVANCED_FACE('',(#328),#353,.F.);
#328 = FACE_BOUND('',#329,.F.);
#329 = EDGE_LOOP('',(#330,#331,#339,#347));
#330 = ORIENTED_EDGE('',*,*,#195,.T.);
#331 = ORIENTED_EDGE('',*,*,#332,.T.);
#332 = EDGE_CURVE('',#198,#333,#335,.T.);
#333 = VERTEX_POINT('',#334);
#334 = CARTESIAN_POINT('',(2.34,-0.2,-1.5));
#335 = LINE('',#336,#337);
#336 = CARTESIAN_POINT('',(2.34,-0.2,3.5));
#337 = VECTOR('',#338,1.);
#338 = DIRECTION('',(-0.E+000,-0.E+000,-1.));
#339 = ORIENTED_EDGE('',*,*,#340,.T.);
#340 = EDGE_CURVE('',#333,#341,#343,.T.);
#341 = VERTEX_POINT('',#342);
#342 = CARTESIAN_POINT('',(2.34,0.2,-1.5));
#343 = LINE('',#344,#345);
#344 = CARTESIAN_POINT('',(2.34,-0.2,-1.5));
#345 = VECTOR('',#346,1.);
#346 = DIRECTION('',(0.E+000,1.,0.E+000));
#347 = ORIENTED_EDGE('',*,*,#348,.F.);
#348 = EDGE_CURVE('',#196,#341,#349,.T.);
#349 = LINE('',#350,#351);
#350 = CARTESIAN_POINT('',(2.34,0.2,3.5));
#351 = VECTOR('',#352,1.);
#352 = DIRECTION('',(-0.E+000,-0.E+000,-1.));
#353 = PLANE('',#354);
#354 = AXIS2_PLACEMENT_3D('',#355,#356,#357);
#355 = CARTESIAN_POINT('',(2.34,-0.2,3.5));
#356 = DIRECTION('',(1.,0.E+000,0.E+000));
#357 = DIRECTION('',(0.E+000,1.,0.E+000));
#358 = ADVANCED_FACE('',(#359),#377,.F.);
#359 = FACE_BOUND('',#360,.F.);
#360 = EDGE_LOOP('',(#361,#362,#363,#371));
#361 = ORIENTED_EDGE('',*,*,#221,.T.);
#362 = ORIENTED_EDGE('',*,*,#348,.T.);
#363 = ORIENTED_EDGE('',*,*,#364,.T.);
#364 = EDGE_CURVE('',#341,#365,#367,.T.);
#365 = VERTEX_POINT('',#366);
#366 = CARTESIAN_POINT('',(2.74,0.2,-1.5));
#367 = LINE('',#368,#369);
#368 = CARTESIAN_POINT('',(2.34,0.2,-1.5));
#369 = VECTOR('',#370,1.);
#370 = DIRECTION('',(1.,0.E+000,0.E+000));
#371 = ORIENTED_EDGE('',*,*,#372,.F.);
#372 = EDGE_CURVE('',#214,#365,#373,.T.);
#373 = LINE('',#374,#375);
#374 = CARTESIAN_POINT('',(2.74,0.2,3.5));
#375 = VECTOR('',#376,1.);
#376 = DIRECTION('',(-0.E+000,-0.E+000,-1.));
#377 = PLANE('',#378);
#378 = AXIS2_PLACEMENT_3D('',#379,#380,#381);
#379 = CARTESIAN_POINT('',(2.34,0.2,3.5));
#380 = DIRECTION('',(0.E+000,-1.,0.E+000));
#381 = DIRECTION('',(1.,0.E+000,0.E+000));
#382 = ADVANCED_FACE('',(#383),#401,.F.);
#383 = FACE_BOUND('',#384,.F.);
#384 = EDGE_LOOP('',(#385,#386,#387,#395));
#385 = ORIENTED_EDGE('',*,*,#213,.T.);
#386 = ORIENTED_EDGE('',*,*,#372,.T.);
#387 = ORIENTED_EDGE('',*,*,#388,.T.);
#388 = EDGE_CURVE('',#365,#389,#391,.T.);
#389 = VERTEX_POINT('',#390);
#390 = CARTESIAN_POINT('',(2.74,-0.2,-1.5));
#391 = LINE('',#392,#393);
#392 = CARTESIAN_POINT('',(2.74,0.2,-1.5));
#393 = VECTOR('',#394,1.);
#394 = DIRECTION('',(0.E+000,-1.,0.E+000));
#395 = ORIENTED_EDGE('',*,*,#396,.F.);
#396 = EDGE_CURVE('',#206,#389,#397,.T.);
#397 = LINE('',#398,#399);
#398 = CARTESIAN_POINT('',(2.74,-0.2,3.5));
#399 = VECTOR('',#400,1.);
#400 = DIRECTION('',(-0.E+000,-0.E+000,-1.));
#401 = PLANE('',#402);
#402 = AXIS2_PLACEMENT_3D('',#403,#404,#405);
#403 = CARTESIAN_POINT('',(2.74,0.2,3.5));
#404 = DIRECTION('',(-1.,0.E+000,0.E+000));
#405 = DIRECTION('',(0.E+000,-1.,0.E+000));
#406 = ADVANCED_FACE('',(#407),#418,.F.);
#407 = FACE_BOUND('',#408,.F.);
#408 = EDGE_LOOP('',(#409,#410,#411,#417));
#409 = ORIENTED_EDGE('',*,*,#205,.T.);
#410 = ORIENTED_EDGE('',*,*,#396,.T.);
#411 = ORIENTED_EDGE('',*,*,#412,.T.);
#412 = EDGE_CURVE('',#389,#333,#413,.T.);
#413 = LINE('',#414,#415);
#414 = CARTESIAN_POINT('',(2.74,-0.2,-1.5));
#415 = VECTOR('',#416,1.);
#416 = DIRECTION('',(-1.,0.E+000,0.E+000));
#417 = ORIENTED_EDGE('',*,*,#332,.F.);
#418 = PLANE('',#419);
#419 = AXIS2_PLACEMENT_3D('',#420,#421,#422);
#420 = CARTESIAN_POINT('',(2.74,-0.2,3.5));
#421 = DIRECTION('',(0.E+000,1.,0.E+000));
#422 = DIRECTION('',(-1.,0.E+000,0.E+000));
#423 = ADVANCED_FACE('',(#424),#430,.F.);
#424 = FACE_BOUND('',#425,.T.);
#425 = EDGE_LOOP('',(#426,#427,#428,#429));
#426 = ORIENTED_EDGE('',*,*,#292,.T.);
#427 = ORIENTED_EDGE('',*,*,#316,.T.);
#428 = ORIENTED_EDGE('',*,*,#244,.T.);
#429 = ORIENTED_EDGE('',*,*,#268,.T.);
#430 = PLANE('',#431);
#431 = AXIS2_PLACEMENT_3D('',#432,#433,#434);
#432 = CARTESIAN_POINT('',(-0.2,0.2,-1.5));
#433 = DIRECTION('',(0.E+000,0.E+000,1.));
#434 = DIRECTION('',(1.,0.E+000,0.E+000));
#435 = ADVANCED_FACE('',(#436),#442,.F.);
#436 = FACE_BOUND('',#437,.T.);
#437 = EDGE_LOOP('',(#438,#439,#440,#441));
#438 = ORIENTED_EDGE('',*,*,#364,.T.);
#439 = ORIENTED_EDGE('',*,*,#388,.T.);
#440 = ORIENTED_EDGE('',*,*,#412,.T.);
#441 = ORIENTED_EDGE('',*,*,#340,.T.);
#442 = PLANE('',#443);
#443 = AXIS2_PLACEMENT_3D('',#444,#445,#446);
#444 = CARTESIAN_POINT('',(2.34,0.2,-1.5));
#445 = DIRECTION('',(0.E+000,0.E+000,1.));
#446 = DIRECTION('',(1.,0.E+000,0.E+000));
#447 = ( GEOMETRIC_REPRESENTATION_CONTEXT(3) 
GLOBAL_UNCERTAINTY_ASSIGNED_CONTEXT((#451)) GLOBAL_UNIT_ASSIGNED_CONTEXT
((#448,#449,#450)) REPRESENTATION_CONTEXT('Context #1',
  '3D Context with UNIT and UNCERTAINTY') );
#448 = ( LENGTH_UNIT() NAMED_UNIT(*) SI_UNIT(.MILLI.,.METRE.) );
#449 = ( NAMED_UNIT(*) PLANE_ANGLE_UNIT() SI_UNIT($,.RADIAN.) );
#450 = ( NAMED_UNIT(*) SI_UNIT($,.STERADIAN.) SOLID_ANGLE_UNIT() );
#451 = UNCERTAINTY_MEASURE_WITH_UNIT(LENGTH_MEASURE(1.E-007),#448,
  'distance_accuracy_value','confusion accuracy');
#452 = PRODUCT_TYPE('part',$,(#7));
#453 = MECHANICAL_DESIGN_GEOMETRIC_PRESENTATION_REPRESENTATION('',(#454,
    #462,#469,#476,#483,#490,#497,#505,#512,#519,#526,#533,#540,#547,
    #554,#561),#447);
#454 = STYLED_ITEM('color',(#455),#17);
#455 = PRESENTATION_STYLE_ASSIGNMENT((#456));
#456 = SURFACE_STYLE_USAGE(.BOTH.,#457);
#457 = SURFACE_SIDE_STYLE('',(#458));
#458 = SURFACE_STYLE_FILL_AREA(#459);
#459 = FILL_AREA_STYLE('',(#460));
#460 = FILL_AREA_STYLE_COLOUR('',#461);
#461 = COLOUR_RGB('',0.699999988079,0.10000000149,5.000000074506E-002);
#462 = STYLED_ITEM('color',(#463),#34);
#463 = PRESENTATION_STYLE_ASSIGNMENT((#464));
#464 = SURFACE_STYLE_USAGE(.BOTH.,#465);
#465 = SURFACE_SIDE_STYLE('',(#466));
#466 = SURFACE_STYLE_FILL_AREA(#467);
#467 = FILL_AREA_STYLE('',(#468));
#468 = FILL_AREA_STYLE_COLOUR('',#461);
#469 = STYLED_ITEM('color',(#470),#68);
#470 = PRESENTATION_STYLE_ASSIGNMENT((#471));
#471 = SURFACE_STYLE_USAGE(.BOTH.,#472);
#472 = SURFACE_SIDE_STYLE('',(#473));
#473 = SURFACE_STYLE_FILL_AREA(#474);
#474 = FILL_AREA_STYLE('',(#475));
#475 = FILL_AREA_STYLE_COLOUR('',#461);
#476 = STYLED_ITEM('color',(#477),#103);
#477 = PRESENTATION_STYLE_ASSIGNMENT((#478));
#478 = SURFACE_STYLE_USAGE(.BOTH.,#479);
#479 = SURFACE_SIDE_STYLE('',(#480));
#480 = SURFACE_STYLE_FILL_AREA(#481);
#481 = FILL_AREA_STYLE('',(#482));
#482 = FILL_AREA_STYLE_COLOUR('',#461);
#483 = STYLED_ITEM('color',(#484),#135);
#484 = PRESENTATION_STYLE_ASSIGNMENT((#485));
#485 = SURFACE_STYLE_USAGE(.BOTH.,#486);
#486 = SURFACE_SIDE_STYLE('',(#487));
#487 = SURFACE_STYLE_FILL_AREA(#488);
#488 = FILL_AREA_STYLE('',(#489));
#489 = FILL_AREA_STYLE_COLOUR('',#461);
#490 = STYLED_ITEM('color',(#491),#153);
#491 = PRESENTATION_STYLE_ASSIGNMENT((#492));
#492 = SURFACE_STYLE_USAGE(.BOTH.,#493);
#493 = SURFACE_SIDE_STYLE('',(#494));
#494 = SURFACE_STYLE_FILL_AREA(#495);
#495 = FILL_AREA_STYLE('',(#496));
#496 = FILL_AREA_STYLE_COLOUR('',#461);
#497 = STYLED_ITEM('color',(#498),#231);
#498 = PRESENTATION_STYLE_ASSIGNMENT((#499));
#499 = SURFACE_STYLE_USAGE(.BOTH.,#500);
#500 = SURFACE_SIDE_STYLE('',(#501));
#501 = SURFACE_STYLE_FILL_AREA(#502);
#502 = FILL_AREA_STYLE('',(#503));
#503 = FILL_AREA_STYLE_COLOUR('',#504);
#504 = COLOUR_RGB('',0.824000000954,0.819999992847,0.78100001812);
#505 = STYLED_ITEM('color',(#506),#262);
#506 = PRESENTATION_STYLE_ASSIGNMENT((#507));
#507 = SURFACE_STYLE_USAGE(.BOTH.,#508);
#508 = SURFACE_SIDE_STYLE('',(#509));
#509 = SURFACE_STYLE_FILL_AREA(#510);
#510 = FILL_AREA_STYLE('',(#511));
#511 = FILL_AREA_STYLE_COLOUR('',#504);
#512 = STYLED_ITEM('color',(#513),#286);
#513 = PRESENTATION_STYLE_ASSIGNMENT((#514));
#514 = SURFACE_STYLE_USAGE(.BOTH.,#515);
#515 = SURFACE_SIDE_STYLE('',(#516));
#516 = SURFACE_STYLE_FILL_AREA(#517);
#517 = FILL_AREA_STYLE('',(#518));
#518 = FILL_AREA_STYLE_COLOUR('',#504);
#519 = STYLED_ITEM('color',(#520),#310);
#520 = PRESENTATION_STYLE_ASSIGNMENT((#521));
#521 = SURFACE_STYLE_USAGE(.BOTH.,#522);
#522 = SURFACE_SIDE_STYLE('',(#523));
#523 = SURFACE_STYLE_FILL_AREA(#524);
#524 = FILL_AREA_STYLE('',(#525));
#525 = FILL_AREA_STYLE_COLOUR('',#504);
#526 = STYLED_ITEM('color',(#527),#327);
#527 = PRESENTATION_STYLE_ASSIGNMENT((#528));
#528 = SURFACE_STYLE_USAGE(.BOTH.,#529);
#529 = SURFACE_SIDE_STYLE('',(#530));
#530 = SURFACE_STYLE_FILL_AREA(#531);
#531 = FILL_AREA_STYLE('',(#532));
#532 = FILL_AREA_STYLE_COLOUR('',#504);
#533 = STYLED_ITEM('color',(#534),#358);
#534 = PRESENTATION_STYLE_ASSIGNMENT((#535));
#535 = SURFACE_STYLE_USAGE(.BOTH.,#536);
#536 = SURFACE_SIDE_STYLE('',(#537));
#537 = SURFACE_STYLE_FILL_AREA(#538);
#538 = FILL_AREA_STYLE('',(#539));
#539 = FILL_AREA_STYLE_COLOUR('',#504);
#540 = STYLED_ITEM('color',(#541),#382);
#541 = PRESENTATION_STYLE_ASSIGNMENT((#542));
#542 = SURFACE_STYLE_USAGE(.BOTH.,#543);
#543 = SURFACE_SIDE_STYLE('',(#544));
#544 = SURFACE_STYLE_FILL_AREA(#545);
#545 = FILL_AREA_STYLE('',(#546));
#546 = FILL_AREA_STYLE_COLOUR('',#504);
#547 = STYLED_ITEM('color',(#548),#406);
#548 = PRESENTATION_STYLE_ASSIGNMENT((#549));
#549 = SURFACE_STYLE_USAGE(.BOTH.,#550);
#550 = SURFACE_SIDE_STYLE('',(#551));
#551 = SURFACE_STYLE_FILL_AREA(#552);
#552 = FILL_AREA_STYLE('',(#553));
#553 = FILL_AREA_STYLE_COLOUR('',#504);
#554 = STYLED_ITEM('color',(#555),#423);
#555 = PRESENTATION_STYLE_ASSIGNMENT((#556));
#556 = SURFACE_STYLE_USAGE(.BOTH.,#557);
#557 = SURFACE_SIDE_STYLE('',(#558));
#558 = SURFACE_STYLE_FILL_AREA(#559);
#559 = FILL_AREA_STYLE('',(#560));
#560 = FILL_AREA_STYLE_COLOUR('',#504);
#561 = STYLED_ITEM('color',(#562),#435);
#562 = PRESENTATION_STYLE_ASSIGNMENT((#563));
#563 = SURFACE_STYLE_USAGE(.BOTH.,#564);
#564 = SURFACE_SIDE_STYLE('',(#565));
#565 = SURFACE_STYLE_FILL_AREA(#566);
#566 = FILL_AREA_STYLE('',(#567));
#567 = FILL_AREA_STYLE_COLOUR('',#504);
ENDSEC;
END-ISO-10303-21;
