ISO-10303-21;
HEADER;
/* Buzzer_12x9.5RM7.6.step 3D STEP model for use in ECAD systems
 * Copyright (C) 2018, kicad StepUp
 * 
 * This work is licensed under the [Creative Commons CC-BY-SA 4.0 License](https://creativecommons.org/licenses/by-sa/4.0/legalcode), 
 * with the following exception:
 * To the extent that the creation of electronic designs that use 'Licensed Material' can be considered to be 'Adapted Material', 
 * then the copyright holder waives article 3 of the license with respect to these designs and any generated files which use data provided 
 * as part of the 'Licensed Material'.
 * You are free to use the library data in your own projects without the obligation to share your project files under this or any other license agreement.
 * However, if you wish to redistribute these libraries, or parts thereof (including in modified form) as a collection then the exception above does not apply. 
 * Please refer to https://github.com/KiCad/kicad-packages3D/blob/master/LICENSE.md for further clarification of the exception.
 * Disclaimer of Warranties and Limitation of Liability.
 * These libraries are provided in the hope that they will be useful, but are provided without warranty of any kind, express or implied.
 * *USE 3D CAD DATA AT YOUR OWN RISK*
 * *DO NOT RELY UPON ANY INFORMATION FOUND HERE WITHOUT INDEPENDENT VERIFICATION.*
 * 
 */

FILE_DESCRIPTION(
/* description */ ('model of Buzzer_12x9.5RM7.6'),
/* implementation_level */ '2;1');

FILE_NAME(
/* name */ 'Buzzer_12x9.5RM7.6.step',
/* time_stamp */ '2018-11-19T23:46:26',
/* author */ ('kicad StepUp','ksu'),
/* organization */ ('FreeCAD'),
/* preprocessor_version */ 'OCC',
/* originating_system */ 'kicad StepUp',
/* authorisation */ '');

FILE_SCHEMA(('AUTOMOTIVE_DESIGN { 1 0 10303 214 1 1 1 1 }'));
ENDSEC;

DATA;
#1 = APPLICATION_PROTOCOL_DEFINITION('international standard',
'automotive_design',2000,#2);
#2 = APPLICATION_CONTEXT(
'core data for automotive mechanical design processes');
#3 = SHAPE_DEFINITION_REPRESENTATION(#4,#10);
#4 = PRODUCT_DEFINITION_SHAPE('','',#5);
#5 = PRODUCT_DEFINITION('design','',#6,#9);
#6 = PRODUCT_DEFINITION_FORMATION('','',#7);
#7 = PRODUCT('Buzzer_12x95RM76','Buzzer_12x95RM76','',(#8));
#8 = PRODUCT_CONTEXT('',#2,'mechanical');
#9 = PRODUCT_DEFINITION_CONTEXT('part definition',#2,'design');
#10 = ADVANCED_BREP_SHAPE_REPRESENTATION('',(#11,#15),#307);
#11 = AXIS2_PLACEMENT_3D('',#12,#13,#14);
#12 = CARTESIAN_POINT('',(0.E+000,0.E+000,0.E+000));
#13 = DIRECTION('',(0.E+000,0.E+000,1.));
#14 = DIRECTION('',(1.,0.E+000,-0.E+000));
#15 = MANIFOLD_SOLID_BREP('',#16);
#16 = CLOSED_SHELL('',(#17,#50,#76,#102,#133,#153,#178,#203,#228,#254,
#280,#289,#298));
#17 = ADVANCED_FACE('',(#18),#45,.T.);
#18 = FACE_BOUND('',#19,.F.);
#19 = EDGE_LOOP('',(#20,#30,#37,#38));
#20 = ORIENTED_EDGE('',*,*,#21,.T.);
#21 = EDGE_CURVE('',#22,#24,#26,.T.);
#22 = VERTEX_POINT('',#23);
#23 = CARTESIAN_POINT('',(9.8,1.804356723968E-035,0.33));
#24 = VERTEX_POINT('',#25);
#25 = CARTESIAN_POINT('',(9.8,-8.91040357515E-035,8.048518518519));
#26 = LINE('',#27,#28);
#27 = CARTESIAN_POINT('',(9.8,0.E+000,3.E-002));
#28 = VECTOR('',#29,1.);
#29 = DIRECTION('',(0.E+000,0.E+000,1.));
#30 = ORIENTED_EDGE('',*,*,#31,.T.);
#31 = EDGE_CURVE('',#24,#24,#32,.T.);
#32 = CIRCLE('',#33,6.);
#33 = AXIS2_PLACEMENT_3D('',#34,#35,#36);
#34 = CARTESIAN_POINT('',(3.8,-8.91040357515E-035,8.048518518519));
#35 = DIRECTION('',(-8.559688641721E-035,6.014522413226E-035,1.));
#36 = DIRECTION('',(1.,8.259101077374E-051,8.559688641721E-035));
#37 = ORIENTED_EDGE('',*,*,#21,.F.);
#38 = ORIENTED_EDGE('',*,*,#39,.F.);
#39 = EDGE_CURVE('',#22,#22,#40,.T.);
#40 = CIRCLE('',#41,6.);
#41 = AXIS2_PLACEMENT_3D('',#42,#43,#44);
#42 = CARTESIAN_POINT('',(3.8,1.804356723968E-035,0.33));
#43 = DIRECTION('',(-8.559688641721E-035,6.014522413226E-035,1.));
#44 = DIRECTION('',(1.,6.690258951221E-052,8.559688641721E-035));
#45 = CYLINDRICAL_SURFACE('',#46,6.);
#46 = AXIS2_PLACEMENT_3D('',#47,#48,#49);
#47 = CARTESIAN_POINT('',(3.8,0.E+000,3.E-002));
#48 = DIRECTION('',(-0.E+000,-0.E+000,-1.));
#49 = DIRECTION('',(1.,0.E+000,0.E+000));
#50 = ADVANCED_FACE('',(#51),#71,.T.);
#51 = FACE_BOUND('',#52,.F.);
#52 = EDGE_LOOP('',(#53,#62,#63,#64));
#53 = ORIENTED_EDGE('',*,*,#54,.F.);
#54 = EDGE_CURVE('',#22,#55,#57,.T.);
#55 = VERTEX_POINT('',#56);
#56 = CARTESIAN_POINT('',(9.5,2.672764710092E-051,3.E-002));
#57 = CIRCLE('',#58,0.3);
#58 = AXIS2_PLACEMENT_3D('',#59,#60,#61);
#59 = CARTESIAN_POINT('',(9.5,9.021783619839E-037,0.33));
#60 = DIRECTION('',(3.007261206613E-036,1.,-6.014522413226E-035));
#61 = DIRECTION('',(1.,-3.007261206613E-036,8.559688641721E-035));
#62 = ORIENTED_EDGE('',*,*,#39,.T.);
#63 = ORIENTED_EDGE('',*,*,#54,.T.);
#64 = ORIENTED_EDGE('',*,*,#65,.F.);
#65 = EDGE_CURVE('',#55,#55,#66,.T.);
#66 = CIRCLE('',#67,5.7);
#67 = AXIS2_PLACEMENT_3D('',#68,#69,#70);
#68 = CARTESIAN_POINT('',(3.8,0.E+000,3.E-002));
#69 = DIRECTION('',(-8.559688641721E-035,6.014522413226E-035,1.));
#70 = DIRECTION('',(1.,6.690258951221E-052,8.559688641721E-035));
#71 = TOROIDAL_SURFACE('',#72,5.7,0.3);
#72 = AXIS2_PLACEMENT_3D('',#73,#74,#75);
#73 = CARTESIAN_POINT('',(3.8,1.804356723968E-035,0.33));
#74 = DIRECTION('',(8.559688641721E-035,-6.014522413226E-035,-1.));
#75 = DIRECTION('',(1.,6.690258951221E-052,8.559688641721E-035));
#76 = ADVANCED_FACE('',(#77),#97,.T.);
#77 = FACE_BOUND('',#78,.T.);
#78 = EDGE_LOOP('',(#79,#88,#89,#90));
#79 = ORIENTED_EDGE('',*,*,#80,.F.);
#80 = EDGE_CURVE('',#24,#81,#83,.T.);
#81 = VERTEX_POINT('',#82);
#82 = CARTESIAN_POINT('',(8.318518518519,3.207317652111E-050,9.53));
#83 = CIRCLE('',#84,1.481481481481);
#84 = AXIS2_PLACEMENT_3D('',#85,#86,#87);
#85 = CARTESIAN_POINT('',(8.318518518519,-8.91040357515E-035,
8.048518518519));
#86 = DIRECTION('',(8.259101077374E-051,-1.,6.014522413226E-035));
#87 = DIRECTION('',(1.,8.259101077374E-051,8.559688641721E-035));
#88 = ORIENTED_EDGE('',*,*,#31,.T.);
#89 = ORIENTED_EDGE('',*,*,#80,.T.);
#90 = ORIENTED_EDGE('',*,*,#91,.F.);
#91 = EDGE_CURVE('',#81,#81,#92,.T.);
#92 = CIRCLE('',#93,4.518518518519);
#93 = AXIS2_PLACEMENT_3D('',#94,#95,#96);
#94 = CARTESIAN_POINT('',(3.8,0.E+000,9.53));
#95 = DIRECTION('',(-8.559688641721E-035,6.014522413226E-035,1.));
#96 = DIRECTION('',(1.,8.259101077374E-051,8.559688641721E-035));
#97 = TOROIDAL_SURFACE('',#98,4.518518518519,1.481481481481);
#98 = AXIS2_PLACEMENT_3D('',#99,#100,#101);
#99 = CARTESIAN_POINT('',(3.8,-8.91040357515E-035,8.048518518519));
#100 = DIRECTION('',(-8.559688641721E-035,6.014522413226E-035,1.));
#101 = DIRECTION('',(1.,8.259101077374E-051,8.559688641721E-035));
#102 = ADVANCED_FACE('',(#103,#106,#117),#128,.F.);
#103 = FACE_BOUND('',#104,.F.);
#104 = EDGE_LOOP('',(#105));
#105 = ORIENTED_EDGE('',*,*,#65,.T.);
#106 = FACE_BOUND('',#107,.F.);
#107 = EDGE_LOOP('',(#108));
#108 = ORIENTED_EDGE('',*,*,#109,.F.);
#109 = EDGE_CURVE('',#110,#110,#112,.T.);
#110 = VERTEX_POINT('',#111);
#111 = CARTESIAN_POINT('',(0.45,0.E+000,3.E-002));
#112 = CIRCLE('',#113,0.45);
#113 = AXIS2_PLACEMENT_3D('',#114,#115,#116);
#114 = CARTESIAN_POINT('',(0.E+000,0.E+000,3.E-002));
#115 = DIRECTION('',(0.E+000,0.E+000,1.));
#116 = DIRECTION('',(1.,0.E+000,0.E+000));
#117 = FACE_BOUND('',#118,.F.);
#118 = EDGE_LOOP('',(#119));
#119 = ORIENTED_EDGE('',*,*,#120,.F.);
#120 = EDGE_CURVE('',#121,#121,#123,.T.);
#121 = VERTEX_POINT('',#122);
#122 = CARTESIAN_POINT('',(8.05,0.E+000,3.E-002));
#123 = CIRCLE('',#124,0.45);
#124 = AXIS2_PLACEMENT_3D('',#125,#126,#127);
#125 = CARTESIAN_POINT('',(7.6,0.E+000,3.E-002));
#126 = DIRECTION('',(0.E+000,0.E+000,1.));
#127 = DIRECTION('',(1.,0.E+000,0.E+000));
#128 = PLANE('',#129);
#129 = AXIS2_PLACEMENT_3D('',#130,#131,#132);
#130 = CARTESIAN_POINT('',(3.8,2.108840176837E-016,3.E-002));
#131 = DIRECTION('',(-8.559688641721E-035,6.014522413226E-035,1.));
#132 = DIRECTION('',(1.,0.E+000,8.559688641721E-035));
#133 = ADVANCED_FACE('',(#134,#137),#148,.T.);
#134 = FACE_BOUND('',#135,.T.);
#135 = EDGE_LOOP('',(#136));
#136 = ORIENTED_EDGE('',*,*,#91,.T.);
#137 = FACE_BOUND('',#138,.T.);
#138 = EDGE_LOOP('',(#139));
#139 = ORIENTED_EDGE('',*,*,#140,.T.);
#140 = EDGE_CURVE('',#141,#141,#143,.T.);
#141 = VERTEX_POINT('',#142);
#142 = CARTESIAN_POINT('',(4.8,0.E+000,9.53));
#143 = CIRCLE('',#144,1.);
#144 = AXIS2_PLACEMENT_3D('',#145,#146,#147);
#145 = CARTESIAN_POINT('',(3.8,0.E+000,9.53));
#146 = DIRECTION('',(0.E+000,0.E+000,-1.));
#147 = DIRECTION('',(1.,0.E+000,0.E+000));
#148 = PLANE('',#149);
#149 = AXIS2_PLACEMENT_3D('',#150,#151,#152);
#150 = CARTESIAN_POINT('',(3.8,2.108840176837E-016,9.53));
#151 = DIRECTION('',(-8.559688641721E-035,6.014522413226E-035,1.));
#152 = DIRECTION('',(1.,0.E+000,8.559688641721E-035));
#153 = ADVANCED_FACE('',(#154),#173,.T.);
#154 = FACE_BOUND('',#155,.T.);
#155 = EDGE_LOOP('',(#156,#157,#165,#172));
#156 = ORIENTED_EDGE('',*,*,#109,.F.);
#157 = ORIENTED_EDGE('',*,*,#158,.T.);
#158 = EDGE_CURVE('',#110,#159,#161,.T.);
#159 = VERTEX_POINT('',#160);
#160 = CARTESIAN_POINT('',(0.45,0.E+000,-2.82));
#161 = LINE('',#162,#163);
#162 = CARTESIAN_POINT('',(0.45,0.E+000,1.03));
#163 = VECTOR('',#164,1.);
#164 = DIRECTION('',(-0.E+000,-0.E+000,-1.));
#165 = ORIENTED_EDGE('',*,*,#166,.T.);
#166 = EDGE_CURVE('',#159,#159,#167,.T.);
#167 = CIRCLE('',#168,0.45);
#168 = AXIS2_PLACEMENT_3D('',#169,#170,#171);
#169 = CARTESIAN_POINT('',(0.E+000,0.E+000,-2.82));
#170 = DIRECTION('',(0.E+000,0.E+000,1.));
#171 = DIRECTION('',(1.,0.E+000,0.E+000));
#172 = ORIENTED_EDGE('',*,*,#158,.F.);
#173 = CYLINDRICAL_SURFACE('',#174,0.45);
#174 = AXIS2_PLACEMENT_3D('',#175,#176,#177);
#175 = CARTESIAN_POINT('',(0.E+000,0.E+000,1.03));
#176 = DIRECTION('',(0.E+000,0.E+000,1.));
#177 = DIRECTION('',(1.,0.E+000,0.E+000));
#178 = ADVANCED_FACE('',(#179),#198,.T.);
#179 = FACE_BOUND('',#180,.T.);
#180 = EDGE_LOOP('',(#181,#182,#190,#197));
#181 = ORIENTED_EDGE('',*,*,#120,.F.);
#182 = ORIENTED_EDGE('',*,*,#183,.T.);
#183 = EDGE_CURVE('',#121,#184,#186,.T.);
#184 = VERTEX_POINT('',#185);
#185 = CARTESIAN_POINT('',(8.05,6.042804770876E-033,-2.82));
#186 = LINE('',#187,#188);
#187 = CARTESIAN_POINT('',(8.05,0.E+000,1.03));
#188 = VECTOR('',#189,1.);
#189 = DIRECTION('',(-0.E+000,-0.E+000,-1.));
#190 = ORIENTED_EDGE('',*,*,#191,.T.);
#191 = EDGE_CURVE('',#184,#184,#192,.T.);
#192 = CIRCLE('',#193,0.45);
#193 = AXIS2_PLACEMENT_3D('',#194,#195,#196);
#194 = CARTESIAN_POINT('',(7.6,-1.29542663314E-031,-2.82));
#195 = DIRECTION('',(-1.19708830782E-030,3.357113761597E-032,1.));
#196 = DIRECTION('',(1.,3.013010401886E-031,1.19708830782E-030));
#197 = ORIENTED_EDGE('',*,*,#183,.F.);
#198 = CYLINDRICAL_SURFACE('',#199,0.45);
#199 = AXIS2_PLACEMENT_3D('',#200,#201,#202);
#200 = CARTESIAN_POINT('',(7.6,0.E+000,1.03));
#201 = DIRECTION('',(0.E+000,0.E+000,1.));
#202 = DIRECTION('',(1.,0.E+000,0.E+000));
#203 = ADVANCED_FACE('',(#204),#223,.F.);
#204 = FACE_BOUND('',#205,.T.);
#205 = EDGE_LOOP('',(#206,#215,#221,#222));
#206 = ORIENTED_EDGE('',*,*,#207,.F.);
#207 = EDGE_CURVE('',#208,#208,#210,.T.);
#208 = VERTEX_POINT('',#209);
#209 = CARTESIAN_POINT('',(4.8,0.E+000,9.33));
#210 = CIRCLE('',#211,1.);
#211 = AXIS2_PLACEMENT_3D('',#212,#213,#214);
#212 = CARTESIAN_POINT('',(3.8,0.E+000,9.33));
#213 = DIRECTION('',(0.E+000,0.E+000,1.));
#214 = DIRECTION('',(1.,0.E+000,0.E+000));
#215 = ORIENTED_EDGE('',*,*,#216,.T.);
#216 = EDGE_CURVE('',#208,#141,#217,.T.);
#217 = LINE('',#218,#219);
#218 = CARTESIAN_POINT('',(4.8,0.E+000,1.93));
#219 = VECTOR('',#220,1.);
#220 = DIRECTION('',(0.E+000,0.E+000,1.));
#221 = ORIENTED_EDGE('',*,*,#140,.F.);
#222 = ORIENTED_EDGE('',*,*,#216,.F.);
#223 = CYLINDRICAL_SURFACE('',#224,1.);
#224 = AXIS2_PLACEMENT_3D('',#225,#226,#227);
#225 = CARTESIAN_POINT('',(3.8,0.E+000,1.93));
#226 = DIRECTION('',(-0.E+000,-0.E+000,-1.));
#227 = DIRECTION('',(1.,0.E+000,0.E+000));
#228 = ADVANCED_FACE('',(#229),#249,.T.);
#229 = FACE_BOUND('',#230,.F.);
#230 = EDGE_LOOP('',(#231,#240,#241,#242));
#231 = ORIENTED_EDGE('',*,*,#232,.F.);
#232 = EDGE_CURVE('',#159,#233,#235,.T.);
#233 = VERTEX_POINT('',#234);
#234 = CARTESIAN_POINT('',(0.27,0.E+000,-3.));
#235 = CIRCLE('',#236,0.18);
#236 = AXIS2_PLACEMENT_3D('',#237,#238,#239);
#237 = CARTESIAN_POINT('',(0.27,0.E+000,-2.82));
#238 = DIRECTION('',(-0.E+000,1.,0.E+000));
#239 = DIRECTION('',(1.,0.E+000,0.E+000));
#240 = ORIENTED_EDGE('',*,*,#166,.T.);
#241 = ORIENTED_EDGE('',*,*,#232,.T.);
#242 = ORIENTED_EDGE('',*,*,#243,.F.);
#243 = EDGE_CURVE('',#233,#233,#244,.T.);
#244 = CIRCLE('',#245,0.27);
#245 = AXIS2_PLACEMENT_3D('',#246,#247,#248);
#246 = CARTESIAN_POINT('',(0.E+000,0.E+000,-3.));
#247 = DIRECTION('',(0.E+000,0.E+000,1.));
#248 = DIRECTION('',(1.,0.E+000,0.E+000));
#249 = TOROIDAL_SURFACE('',#250,0.27,0.18);
#250 = AXIS2_PLACEMENT_3D('',#251,#252,#253);
#251 = CARTESIAN_POINT('',(0.E+000,0.E+000,-2.82));
#252 = DIRECTION('',(-0.E+000,-0.E+000,-1.));
#253 = DIRECTION('',(1.,0.E+000,0.E+000));
#254 = ADVANCED_FACE('',(#255),#275,.T.);
#255 = FACE_BOUND('',#256,.F.);
#256 = EDGE_LOOP('',(#257,#266,#267,#268));
#257 = ORIENTED_EDGE('',*,*,#258,.F.);
#258 = EDGE_CURVE('',#184,#259,#261,.T.);
#259 = VERTEX_POINT('',#260);
#260 = CARTESIAN_POINT('',(7.87,-5.423418723394E-032,-3.));
#261 = CIRCLE('',#262,0.18);
#262 = AXIS2_PLACEMENT_3D('',#263,#264,#265);
#263 = CARTESIAN_POINT('',(7.87,-5.181706532559E-032,-2.82));
#264 = DIRECTION('',(-2.878725851422E-031,1.,-3.357113761597E-032));
#265 = DIRECTION('',(1.,2.878725851422E-031,1.19708830782E-030));
#266 = ORIENTED_EDGE('',*,*,#191,.T.);
#267 = ORIENTED_EDGE('',*,*,#258,.T.);
#268 = ORIENTED_EDGE('',*,*,#269,.F.);
#269 = EDGE_CURVE('',#259,#259,#270,.T.);
#270 = CIRCLE('',#271,0.27);
#271 = AXIS2_PLACEMENT_3D('',#272,#273,#274);
#272 = CARTESIAN_POINT('',(7.6,-1.355854680849E-031,-3.));
#273 = DIRECTION('',(-1.19708830782E-030,3.357113761597E-032,1.));
#274 = DIRECTION('',(1.,3.013010401886E-031,1.19708830782E-030));
#275 = TOROIDAL_SURFACE('',#276,0.27,0.18);
#276 = AXIS2_PLACEMENT_3D('',#277,#278,#279);
#277 = CARTESIAN_POINT('',(7.6,-1.29542663314E-031,-2.82));
#278 = DIRECTION('',(1.19708830782E-030,-3.357113761597E-032,-1.));
#279 = DIRECTION('',(1.,3.013010401886E-031,1.19708830782E-030));
#280 = ADVANCED_FACE('',(#281),#284,.T.);
#281 = FACE_BOUND('',#282,.T.);
#282 = EDGE_LOOP('',(#283));
#283 = ORIENTED_EDGE('',*,*,#207,.T.);
#284 = PLANE('',#285);
#285 = AXIS2_PLACEMENT_3D('',#286,#287,#288);
#286 = CARTESIAN_POINT('',(3.8,8.737595245399E-017,9.33));
#287 = DIRECTION('',(-4.930380657631E-031,-1.632186346944E-032,1.));
#288 = DIRECTION('',(1.,0.E+000,4.930380657631E-031));
#289 = ADVANCED_FACE('',(#290),#293,.F.);
#290 = FACE_BOUND('',#291,.F.);
#291 = EDGE_LOOP('',(#292));
#292 = ORIENTED_EDGE('',*,*,#243,.T.);
#293 = PLANE('',#294);
#294 = AXIS2_PLACEMENT_3D('',#295,#296,#297);
#295 = CARTESIAN_POINT('',(-1.18701400394E-017,2.911085817041E-017,-3.)
);
#296 = DIRECTION('',(0.E+000,0.E+000,1.));
#297 = DIRECTION('',(1.,0.E+000,0.E+000));
#298 = ADVANCED_FACE('',(#299),#302,.F.);
#299 = FACE_BOUND('',#300,.F.);
#300 = EDGE_LOOP('',(#301));
#301 = ORIENTED_EDGE('',*,*,#269,.T.);
#302 = PLANE('',#303);
#303 = AXIS2_PLACEMENT_3D('',#304,#305,#306);
#304 = CARTESIAN_POINT('',(7.6,-1.836970198721E-017,-3.));
#305 = DIRECTION('',(-1.19708830782E-030,3.357113761597E-032,1.));
#306 = DIRECTION('',(1.,0.E+000,1.19708830782E-030));
#307 = ( GEOMETRIC_REPRESENTATION_CONTEXT(3)
GLOBAL_UNCERTAINTY_ASSIGNED_CONTEXT((#311)) GLOBAL_UNIT_ASSIGNED_CONTEXT
((#308,#309,#310)) REPRESENTATION_CONTEXT('Context #1',
'3D Context with UNIT and UNCERTAINTY') );
#308 = ( LENGTH_UNIT() NAMED_UNIT(*) SI_UNIT(.MILLI.,.METRE.) );
#309 = ( NAMED_UNIT(*) PLANE_ANGLE_UNIT() SI_UNIT($,.RADIAN.) );
#310 = ( NAMED_UNIT(*) SI_UNIT($,.STERADIAN.) SOLID_ANGLE_UNIT() );
#311 = UNCERTAINTY_MEASURE_WITH_UNIT(LENGTH_MEASURE(1.E-007),#308,
'distance_accuracy_value','confusion accuracy');
#312 = PRODUCT_RELATED_PRODUCT_CATEGORY('part',$,(#7));
#313 = MECHANICAL_DESIGN_GEOMETRIC_PRESENTATION_REPRESENTATION('',(#314,
#322,#329,#336,#343,#350,#358,#365,#372,#379,#386,#394,#401),#307);
#314 = STYLED_ITEM('color',(#315),#17);
#315 = PRESENTATION_STYLE_ASSIGNMENT((#316));
#316 = SURFACE_STYLE_USAGE(.BOTH.,#317);
#317 = SURFACE_SIDE_STYLE('',(#318));
#318 = SURFACE_STYLE_FILL_AREA(#319);
#319 = FILL_AREA_STYLE('',(#320));
#320 = FILL_AREA_STYLE_COLOUR('',#321);
#321 = COLOUR_RGB('',0.148000001907,0.144999995828,0.144999995828);
#322 = STYLED_ITEM('color',(#323),#50);
#323 = PRESENTATION_STYLE_ASSIGNMENT((#324));
#324 = SURFACE_STYLE_USAGE(.BOTH.,#325);
#325 = SURFACE_SIDE_STYLE('',(#326));
#326 = SURFACE_STYLE_FILL_AREA(#327);
#327 = FILL_AREA_STYLE('',(#328));
#328 = FILL_AREA_STYLE_COLOUR('',#321);
#329 = STYLED_ITEM('color',(#330),#76);
#330 = PRESENTATION_STYLE_ASSIGNMENT((#331));
#331 = SURFACE_STYLE_USAGE(.BOTH.,#332);
#332 = SURFACE_SIDE_STYLE('',(#333));
#333 = SURFACE_STYLE_FILL_AREA(#334);
#334 = FILL_AREA_STYLE('',(#335));
#335 = FILL_AREA_STYLE_COLOUR('',#321);
#336 = STYLED_ITEM('color',(#337),#102);
#337 = PRESENTATION_STYLE_ASSIGNMENT((#338));
#338 = SURFACE_STYLE_USAGE(.BOTH.,#339);
#339 = SURFACE_SIDE_STYLE('',(#340));
#340 = SURFACE_STYLE_FILL_AREA(#341);
#341 = FILL_AREA_STYLE('',(#342));
#342 = FILL_AREA_STYLE_COLOUR('',#321);
#343 = STYLED_ITEM('color',(#344),#133);
#344 = PRESENTATION_STYLE_ASSIGNMENT((#345));
#345 = SURFACE_STYLE_USAGE(.BOTH.,#346);
#346 = SURFACE_SIDE_STYLE('',(#347));
#347 = SURFACE_STYLE_FILL_AREA(#348);
#348 = FILL_AREA_STYLE('',(#349));
#349 = FILL_AREA_STYLE_COLOUR('',#321);
#350 = STYLED_ITEM('color',(#351),#153);
#351 = PRESENTATION_STYLE_ASSIGNMENT((#352));
#352 = SURFACE_STYLE_USAGE(.BOTH.,#353);
#353 = SURFACE_SIDE_STYLE('',(#354));
#354 = SURFACE_STYLE_FILL_AREA(#355);
#355 = FILL_AREA_STYLE('',(#356));
#356 = FILL_AREA_STYLE_COLOUR('',#357);
#357 = COLOUR_RGB('',0.824000000954,0.819999992847,0.78100001812);
#358 = STYLED_ITEM('color',(#359),#178);
#359 = PRESENTATION_STYLE_ASSIGNMENT((#360));
#360 = SURFACE_STYLE_USAGE(.BOTH.,#361);
#361 = SURFACE_SIDE_STYLE('',(#362));
#362 = SURFACE_STYLE_FILL_AREA(#363);
#363 = FILL_AREA_STYLE('',(#364));
#364 = FILL_AREA_STYLE_COLOUR('',#357);
#365 = STYLED_ITEM('color',(#366),#203);
#366 = PRESENTATION_STYLE_ASSIGNMENT((#367));
#367 = SURFACE_STYLE_USAGE(.BOTH.,#368);
#368 = SURFACE_SIDE_STYLE('',(#369));
#369 = SURFACE_STYLE_FILL_AREA(#370);
#370 = FILL_AREA_STYLE('',(#371));
#371 = FILL_AREA_STYLE_COLOUR('',#321);
#372 = STYLED_ITEM('color',(#373),#228);
#373 = PRESENTATION_STYLE_ASSIGNMENT((#374));
#374 = SURFACE_STYLE_USAGE(.BOTH.,#375);
#375 = SURFACE_SIDE_STYLE('',(#376));
#376 = SURFACE_STYLE_FILL_AREA(#377);
#377 = FILL_AREA_STYLE('',(#378));
#378 = FILL_AREA_STYLE_COLOUR('',#357);
#379 = STYLED_ITEM('color',(#380),#254);
#380 = PRESENTATION_STYLE_ASSIGNMENT((#381));
#381 = SURFACE_STYLE_USAGE(.BOTH.,#382);
#382 = SURFACE_SIDE_STYLE('',(#383));
#383 = SURFACE_STYLE_FILL_AREA(#384);
#384 = FILL_AREA_STYLE('',(#385));
#385 = FILL_AREA_STYLE_COLOUR('',#357);
#386 = STYLED_ITEM('color',(#387),#280);
#387 = PRESENTATION_STYLE_ASSIGNMENT((#388));
#388 = SURFACE_STYLE_USAGE(.BOTH.,#389);
#389 = SURFACE_SIDE_STYLE('',(#390));
#390 = SURFACE_STYLE_FILL_AREA(#391);
#391 = FILL_AREA_STYLE('',(#392));
#392 = FILL_AREA_STYLE_COLOUR('',#393);
#393 = COLOUR_RGB('',0.809000015259,0.425999999046,0.148000001907);
#394 = STYLED_ITEM('color',(#395),#289);
#395 = PRESENTATION_STYLE_ASSIGNMENT((#396));
#396 = SURFACE_STYLE_USAGE(.BOTH.,#397);
#397 = SURFACE_SIDE_STYLE('',(#398));
#398 = SURFACE_STYLE_FILL_AREA(#399);
#399 = FILL_AREA_STYLE('',(#400));
#400 = FILL_AREA_STYLE_COLOUR('',#357);
#401 = STYLED_ITEM('color',(#402),#298);
#402 = PRESENTATION_STYLE_ASSIGNMENT((#403));
#403 = SURFACE_STYLE_USAGE(.BOTH.,#404);
#404 = SURFACE_SIDE_STYLE('',(#405));
#405 = SURFACE_STYLE_FILL_AREA(#406);
#406 = FILL_AREA_STYLE('',(#407));
#407 = FILL_AREA_STYLE_COLOUR('',#357);
ENDSEC;
END-ISO-10303-21;
