ISO-10303-21;
HEADER;
/* RV_Disc_D15.5mm_W3.9mm_P7.5mm.step 3D STEP model for use in ECAD systems
 * Copyright (C) 2018, kicad StepUp
 * 
 * This work is licensed under the [Creative Commons CC-BY-SA 4.0 License](https://creativecommons.org/licenses/by-sa/4.0/legalcode), 
 * with the following exception:
 * To the extent that the creation of electronic designs that use 'Licensed Material' can be considered to be 'Adapted Material', 
 * then the copyright holder waives article 3 of the license with respect to these designs and any generated files which use data provided 
 * as part of the 'Licensed Material'.
 * You are free to use the library data in your own projects without the obligation to share your project files under this or any other license agreement.
 * However, if you wish to redistribute these libraries, or parts thereof (including in modified form) as a collection then the exception above does not apply. 
 * Please refer to https://github.com/KiCad/kicad-packages3D/blob/master/LICENSE.md for further clarification of the exception.
 * Disclaimer of Warranties and Limitation of Liability.
 * These libraries are provided in the hope that they will be useful, but are provided without warranty of any kind, express or implied.
 * *USE 3D CAD DATA AT YOUR OWN RISK*
 * *DO NOT RELY UPON ANY INFORMATION FOUND HERE WITHOUT INDEPENDENT VERIFICATION.*
 * 
 */

FILE_DESCRIPTION(
/* description */ ('model of RV_Disc_D15.5mm_W3.9mm_P7.5mm'),
/* implementation_level */ '2;1');

FILE_NAME(
/* name */ 'RV_Disc_D15.5mm_W3.9mm_P7.5mm.step',
/* time_stamp */ '2018-11-11T20:57:42',
/* author */ ('kicad StepUp','ksu'),
/* organization */ ('FreeCAD'),
/* preprocessor_version */ 'OCC',
/* originating_system */ 'kicad StepUp',
/* authorisation */ '');

FILE_SCHEMA(('AUTOMOTIVE_DESIGN { 1 0 10303 214 1 1 1 1 }'));
ENDSEC;

DATA;
#1 = APPLICATION_PROTOCOL_DEFINITION('international standard',
'automotive_design',2000,#2);
#2 = APPLICATION_CONTEXT(
'core data for automotive mechanical design processes');
#3 = SHAPE_DEFINITION_REPRESENTATION(#4,#10);
#4 = PRODUCT_DEFINITION_SHAPE('','',#5);
#5 = PRODUCT_DEFINITION('design','',#6,#9);
#6 = PRODUCT_DEFINITION_FORMATION('','',#7);
#7 = PRODUCT('RV_Disc_D155mm_W39mm_P75mm','RV_Disc_D155mm_W39mm_P75mm',
'',(#8));
#8 = PRODUCT_CONTEXT('',#2,'mechanical');
#9 = PRODUCT_DEFINITION_CONTEXT('part definition',#2,'design');
#10 = ADVANCED_BREP_SHAPE_REPRESENTATION('',(#11,#15),#381);
#11 = AXIS2_PLACEMENT_3D('',#12,#13,#14);
#12 = CARTESIAN_POINT('',(0.E+000,0.E+000,0.E+000));
#13 = DIRECTION('',(0.E+000,0.E+000,1.));
#14 = DIRECTION('',(1.,0.E+000,-0.E+000));
#15 = MANIFOLD_SOLID_BREP('',#16);
#16 = CLOSED_SHELL('',(#17,#50,#143,#241,#250,#276,#285,#311,#337,#363,
#372));
#17 = ADVANCED_FACE('',(#18),#45,.T.);
#18 = FACE_BOUND('',#19,.F.);
#19 = EDGE_LOOP('',(#20,#30,#37,#38));
#20 = ORIENTED_EDGE('',*,*,#21,.T.);
#21 = EDGE_CURVE('',#22,#24,#26,.T.);
#22 = VERTEX_POINT('',#23);
#23 = CARTESIAN_POINT('',(11.5,-0.65243902439,7.78));
#24 = VERTEX_POINT('',#25);
#25 = CARTESIAN_POINT('',(11.5,-0.74756097561,7.78));
#26 = LINE('',#27,#28);
#27 = CARTESIAN_POINT('',(11.5,1.25,7.78));
#28 = VECTOR('',#29,1.);
#29 = DIRECTION('',(0.E+000,-1.,0.E+000));
#30 = ORIENTED_EDGE('',*,*,#31,.T.);
#31 = EDGE_CURVE('',#24,#24,#32,.T.);
#32 = CIRCLE('',#33,7.75);
#33 = AXIS2_PLACEMENT_3D('',#34,#35,#36);
#34 = CARTESIAN_POINT('',(3.75,-0.74756097561,7.78));
#35 = DIRECTION('',(0.E+000,-1.,0.E+000));
#36 = DIRECTION('',(1.,0.E+000,0.E+000));
#37 = ORIENTED_EDGE('',*,*,#21,.F.);
#38 = ORIENTED_EDGE('',*,*,#39,.F.);
#39 = EDGE_CURVE('',#22,#22,#40,.T.);
#40 = CIRCLE('',#41,7.75);
#41 = AXIS2_PLACEMENT_3D('',#42,#43,#44);
#42 = CARTESIAN_POINT('',(3.75,-0.65243902439,7.78));
#43 = DIRECTION('',(0.E+000,-1.,0.E+000));
#44 = DIRECTION('',(1.,0.E+000,0.E+000));
#45 = CYLINDRICAL_SURFACE('',#46,7.75);
#46 = AXIS2_PLACEMENT_3D('',#47,#48,#49);
#47 = CARTESIAN_POINT('',(3.75,1.25,7.78));
#48 = DIRECTION('',(0.E+000,1.,0.E+000));
#49 = DIRECTION('',(1.,0.E+000,0.E+000));
#50 = ADVANCED_FACE('',(#51,#71),#138,.T.);
#51 = FACE_BOUND('',#52,.F.);
#52 = EDGE_LOOP('',(#53,#54,#63,#70));
#53 = ORIENTED_EDGE('',*,*,#39,.T.);
#54 = ORIENTED_EDGE('',*,*,#55,.T.);
#55 = EDGE_CURVE('',#22,#56,#58,.T.);
#56 = VERTEX_POINT('',#57);
#57 = CARTESIAN_POINT('',(9.59756097561,1.25,7.78));
#58 = CIRCLE('',#59,1.90243902439);
#59 = AXIS2_PLACEMENT_3D('',#60,#61,#62);
#60 = CARTESIAN_POINT('',(9.59756097561,-0.65243902439,7.78));
#61 = DIRECTION('',(0.E+000,0.E+000,1.));
#62 = DIRECTION('',(1.,0.E+000,0.E+000));
#63 = ORIENTED_EDGE('',*,*,#64,.F.);
#64 = EDGE_CURVE('',#56,#56,#65,.T.);
#65 = CIRCLE('',#66,5.84756097561);
#66 = AXIS2_PLACEMENT_3D('',#67,#68,#69);
#67 = CARTESIAN_POINT('',(3.75,1.25,7.78));
#68 = DIRECTION('',(0.E+000,-1.,0.E+000));
#69 = DIRECTION('',(1.,0.E+000,0.E+000));
#70 = ORIENTED_EDGE('',*,*,#55,.F.);
#71 = FACE_BOUND('',#72,.F.);
#72 = EDGE_LOOP('',(#73,#97));
#73 = ORIENTED_EDGE('',*,*,#74,.T.);
#74 = EDGE_CURVE('',#75,#77,#79,.T.);
#75 = VERTEX_POINT('',#76);
#76 = CARTESIAN_POINT('',(0.36,0.E+000,0.93928382748));
#77 = VERTEX_POINT('',#78);
#78 = CARTESIAN_POINT('',(-0.115846686466,-0.340851206885,1.092683953345
));
#79 = B_SPLINE_CURVE_WITH_KNOTS('',6,(#80,#81,#82,#83,#84,#85,#86,#87,
#88,#89,#90,#91,#92,#93,#94,#95,#96),.UNSPECIFIED.,.F.,.F.,(7,5,5,7)
,(0.E+000,0.231410683062,0.603014263892,1.),.UNSPECIFIED.);
#80 = CARTESIAN_POINT('',(0.36,-1.110223024625E-016,0.93928382748));
#81 = CARTESIAN_POINT('',(0.36,-2.495547425336E-002,0.929115446781));
#82 = CARTESIAN_POINT('',(0.357924098752,-5.011888546518E-002,
0.920423450653));
#83 = CARTESIAN_POINT('',(0.353707294535,-7.527759157199E-002,
0.913324253578));
#84 = CARTESIAN_POINT('',(0.347312530251,-0.100189735939,0.907907499537)
);
#85 = CARTESIAN_POINT('',(0.338745428803,-0.124594975507,0.904225523313)
);
#86 = CARTESIAN_POINT('',(0.310924666126,-0.186171077492,0.899163169484)
);
#87 = CARTESIAN_POINT('',(0.288334852949,-0.222133013767,0.900527353014)
);
#88 = CARTESIAN_POINT('',(0.260556915924,-0.25499132821,0.906403758929)
);
#89 = CARTESIAN_POINT('',(0.228179636769,-0.283730182237,0.916485040151)
);
#90 = CARTESIAN_POINT('',(0.192022963745,-0.307539361533,0.930264946322)
);
#91 = CARTESIAN_POINT('',(0.111431361245,-0.345395642194,0.965234990727)
);
#92 = CARTESIAN_POINT('',(6.643191855347E-002,-0.358743449428,
0.986939451003));
#93 = CARTESIAN_POINT('',(1.944415501617E-002,-0.364974640339,
1.011535379121));
#94 = CARTESIAN_POINT('',(-2.777398489181E-002,-0.363696874955,
1.038004382746));
#95 = CARTESIAN_POINT('',(-7.336173228041E-002,-0.355290766046,
1.065354894296));
#96 = CARTESIAN_POINT('',(-0.115846686466,-0.340851206885,1.092683953345
));
#97 = ORIENTED_EDGE('',*,*,#98,.T.);
#98 = EDGE_CURVE('',#77,#75,#99,.T.);
#99 = B_SPLINE_CURVE_WITH_KNOTS('',7,(#100,#101,#102,#103,#104,#105,#106
,#107,#108,#109,#110,#111,#112,#113,#114,#115,#116,#117,#118,#119,
#120,#121,#122,#123,#124,#125,#126,#127,#128,#129,#130,#131,#132,
#133,#134,#135,#136,#137),.UNSPECIFIED.,.F.,.F.,(8,6,6,6,6,6,8),(
0.E+000,0.15523131519,0.395734611606,0.539438670699,0.664870831893,
0.797519188878,1.),.UNSPECIFIED.);
#100 = CARTESIAN_POINT('',(-0.115846686466,-0.340851206885,
1.092683953345));
#101 = CARTESIAN_POINT('',(-0.150105442083,-0.329207524127,
1.114721391614));
#102 = CARTESIAN_POINT('',(-0.182571625403,-0.313691837873,
1.136853991139));
#103 = CARTESIAN_POINT('',(-0.212794098269,-0.294658615578,
1.158834884858));
#104 = CARTESIAN_POINT('',(-0.240406307631,-0.272499349498,1.1804828984)
);
#105 = CARTESIAN_POINT('',(-0.265117426393,-0.247618972052,
1.201660154365));
#106 = CARTESIAN_POINT('',(-0.286698688064,-0.220421064216,
1.222250822428));
#107 = CARTESIAN_POINT('',(-0.333265183426,-0.146186827611,
1.272957329194));
#108 = CARTESIAN_POINT('',(-0.353582011903,-9.65012870215E-002,
1.302063724316));
#109 = CARTESIAN_POINT('',(-0.365259378003,-4.372548344186E-002,
1.329050346336));
#110 = CARTESIAN_POINT('',(-0.367824642935,1.062117389494E-002,
1.353444828041));
#111 = CARTESIAN_POINT('',(-0.360996992374,6.491097082659E-002,
1.374593051571));
#112 = CARTESIAN_POINT('',(-0.344733568001,0.11738313816,1.391491665071)
);
#113 = CARTESIAN_POINT('',(-0.304218921572,0.19526666099,1.40967657932)
);
#114 = CARTESIAN_POINT('',(-0.285823486633,0.223057269383,1.414506281731
));
#115 = CARTESIAN_POINT('',(-0.264274712223,0.249084276981,1.417093541905
));
#116 = CARTESIAN_POINT('',(-0.239733228469,0.272889707671,1.417137933386
));
#117 = CARTESIAN_POINT('',(-0.212472427496,0.294005486731,1.41434502033)
);
#118 = CARTESIAN_POINT('',(-0.182895723224,0.312001225196,1.408496707167
));
#119 = CARTESIAN_POINT('',(-0.124153216875,0.339259304703,1.391752118323
));
#120 = CARTESIAN_POINT('',(-9.540567742277E-002,0.349344587742,
1.381589672382));
#121 = CARTESIAN_POINT('',(-6.565075363034E-002,0.35658842772,
1.369045807518));
#122 = CARTESIAN_POINT('',(-3.533781624498E-002,0.360832759884,
1.35420505488));
#123 = CARTESIAN_POINT('',(-4.982857081658E-003,0.362038811508,
1.33732126658));
#124 = CARTESIAN_POINT('',(2.487111181958E-002,0.360322424059,
1.318819431028));
#125 = CARTESIAN_POINT('',(8.421511266222E-002,0.35136782574,
1.278528757781));
#126 = CARTESIAN_POINT('',(0.113672272419,0.343804242265,1.256552693545)
);
#127 = CARTESIAN_POINT('',(0.141803967206,0.33353770981,1.233704779002)
);
#128 = CARTESIAN_POINT('',(0.168414996829,0.320828578315,1.210360909358)
);
#129 = CARTESIAN_POINT('',(0.193370657712,0.305910447368,1.186846220418)
);
#130 = CARTESIAN_POINT('',(0.216570824061,0.288975079171,1.163428758506)
);
#131 = CARTESIAN_POINT('',(0.270516940332,0.241468005122,1.105090860809)
);
#132 = CARTESIAN_POINT('',(0.298762957602,0.208448284388,1.070650780545)
);
#133 = CARTESIAN_POINT('',(0.322304614842,0.171703191314,1.037880344826)
);
#134 = CARTESIAN_POINT('',(0.340708325698,0.131756622802,1.007584061511)
);
#135 = CARTESIAN_POINT('',(0.353450323116,8.923175903457E-002,
0.980567821322));
#136 = CARTESIAN_POINT('',(0.36,4.49553888614E-002,0.957601391946));
#137 = CARTESIAN_POINT('',(0.36,-1.110223024625E-016,0.93928382748));
#138 = TOROIDAL_SURFACE('',#139,5.84756097561,1.90243902439);
#139 = AXIS2_PLACEMENT_3D('',#140,#141,#142);
#140 = CARTESIAN_POINT('',(3.75,-0.65243902439,7.78));
#141 = DIRECTION('',(0.E+000,1.,0.E+000));
#142 = DIRECTION('',(1.,0.E+000,0.E+000));
#143 = ADVANCED_FACE('',(#144,#164),#236,.T.);
#144 = FACE_BOUND('',#145,.T.);
#145 = EDGE_LOOP('',(#146,#147,#156,#163));
#146 = ORIENTED_EDGE('',*,*,#31,.T.);
#147 = ORIENTED_EDGE('',*,*,#148,.T.);
#148 = EDGE_CURVE('',#24,#149,#151,.T.);
#149 = VERTEX_POINT('',#150);
#150 = CARTESIAN_POINT('',(9.59756097561,-2.65,7.78));
#151 = CIRCLE('',#152,1.90243902439);
#152 = AXIS2_PLACEMENT_3D('',#153,#154,#155);
#153 = CARTESIAN_POINT('',(9.59756097561,-0.74756097561,7.78));
#154 = DIRECTION('',(0.E+000,0.E+000,-1.));
#155 = DIRECTION('',(1.,0.E+000,0.E+000));
#156 = ORIENTED_EDGE('',*,*,#157,.F.);
#157 = EDGE_CURVE('',#149,#149,#158,.T.);
#158 = CIRCLE('',#159,5.84756097561);
#159 = AXIS2_PLACEMENT_3D('',#160,#161,#162);
#160 = CARTESIAN_POINT('',(3.75,-2.65,7.78));
#161 = DIRECTION('',(0.E+000,-1.,0.E+000));
#162 = DIRECTION('',(1.,0.E+000,0.E+000));
#163 = ORIENTED_EDGE('',*,*,#148,.F.);
#164 = FACE_BOUND('',#165,.T.);
#165 = EDGE_LOOP('',(#166,#196));
#166 = ORIENTED_EDGE('',*,*,#167,.T.);
#167 = EDGE_CURVE('',#168,#170,#172,.T.);
#168 = VERTEX_POINT('',#169);
#169 = CARTESIAN_POINT('',(7.86,-1.4,1.346074467872));
#170 = VERTEX_POINT('',#171);
#171 = CARTESIAN_POINT('',(7.216381429544,-1.178278312986,0.90370351096)
);
#172 = B_SPLINE_CURVE_WITH_KNOTS('',8,(#173,#174,#175,#176,#177,#178,
#179,#180,#181,#182,#183,#184,#185,#186,#187,#188,#189,#190,#191,
#192,#193,#194,#195),.UNSPECIFIED.,.F.,.F.,(9,7,7,9),(0.E+000,
0.238797630714,0.769640919561,1.),.UNSPECIFIED.);
#173 = CARTESIAN_POINT('',(7.86,-1.4,1.346074467872));
#174 = CARTESIAN_POINT('',(7.86,-1.374402803174,1.334985173315));
#175 = CARTESIAN_POINT('',(7.857919881711,-1.348884512778,1.323171070934
));
#176 = CARTESIAN_POINT('',(7.853782290693,-1.323614666855,1.310710246917
));
#177 = CARTESIAN_POINT('',(7.847619290608,-1.298759101891,1.297669217347
));
#178 = CARTESIAN_POINT('',(7.839472629029,-1.274480451311,1.28410542918)
);
#179 = CARTESIAN_POINT('',(7.829394003251,-1.250938643991,1.27006976123)
);
#180 = CARTESIAN_POINT('',(7.817445326093,-1.228291402754,1.255609025138
));
#181 = CARTESIAN_POINT('',(7.773141111689,-1.158685715647,1.207778143106
));
#182 = CARTESIAN_POINT('',(7.733857194537,-1.116114963156,1.173080890595
));
#183 = CARTESIAN_POINT('',(7.686555680346,-1.080209956258,1.136939613849
));
#184 = CARTESIAN_POINT('',(7.632004829009,-1.052688446291,1.099740471572
));
#185 = CARTESIAN_POINT('',(7.571729842057,-1.035619571987,1.062285595829
));
#186 = CARTESIAN_POINT('',(7.508384425955,-1.030819957035,1.025952805637
));
#187 = CARTESIAN_POINT('',(7.445666154166,-1.03882447543,0.993014648017)
);
#188 = CARTESIAN_POINT('',(7.361729278803,-1.066538188972,0.953413714269
));
#189 = CARTESIAN_POINT('',(7.33710627082,-1.077060294825,0.942427424671)
);
#190 = CARTESIAN_POINT('',(7.313471835417,-1.089626518688,0.932559380724
));
#191 = CARTESIAN_POINT('',(7.291022859015,-1.104120326951,0.923926754672
));
#192 = CARTESIAN_POINT('',(7.269939860355,-1.120402040346,0.916638578241
));
#193 = CARTESIAN_POINT('',(7.250383896523,-1.138311104384,0.910790721436
));
#194 = CARTESIAN_POINT('',(7.232493468972,-1.157668359799,0.90646087135)
);
#195 = CARTESIAN_POINT('',(7.216381429544,-1.178278312986,0.90370351096)
);
#196 = ORIENTED_EDGE('',*,*,#197,.T.);
#197 = EDGE_CURVE('',#170,#168,#198,.T.);
#198 = B_SPLINE_CURVE_WITH_KNOTS('',6,(#199,#200,#201,#202,#203,#204,
#205,#206,#207,#208,#209,#210,#211,#212,#213,#214,#215,#216,#217,
#218,#219,#220,#221,#222,#223,#224,#225,#226,#227,#228,#229,#230,
#231,#232,#233,#234,#235),.UNSPECIFIED.,.F.,.F.,(7,5,5,5,5,5,5,7),(
0.E+000,6.044232917557E-002,0.23937946259,0.407050123008,
0.563904235381,0.706519914843,0.857487908427,1.),.UNSPECIFIED.);
#199 = CARTESIAN_POINT('',(7.216381429544,-1.178278312986,0.90370351096)
);
#200 = CARTESIAN_POINT('',(7.207603298724,-1.189506988665,0.902201251093
));
#201 = CARTESIAN_POINT('',(7.199379827719,-1.201125651951,0.901189061032
));
#202 = CARTESIAN_POINT('',(7.191733029233,-1.213095986172,0.900677500366
));
#203 = CARTESIAN_POINT('',(7.18468088479,-1.225378349794,0.900673449815)
);
#204 = CARTESIAN_POINT('',(7.178237344737,-1.23793177643,0.901180111232)
);
#205 = CARTESIAN_POINT('',(7.155167596472,-1.288555169434,0.905207489215
));
#206 = CARTESIAN_POINT('',(7.14333842742,-1.32841322366,0.912689859691)
);
#207 = CARTESIAN_POINT('',(7.137199073647,-1.369173584496,0.92463106923)
);
#208 = CARTESIAN_POINT('',(7.136619164706,-1.409767666125,0.94069188693)
);
#209 = CARTESIAN_POINT('',(7.141263004358,-1.449365026428,0.960343043362
));
#210 = CARTESIAN_POINT('',(7.159631883956,-1.522850260044,1.004213406023
));
#211 = CARTESIAN_POINT('',(7.172768152747,-1.556947102524,1.028070644946
));
#212 = CARTESIAN_POINT('',(7.189848257014,-1.58907938406,1.054094832991)
);
#213 = CARTESIAN_POINT('',(7.210547487375,-1.61884719225,1.081772631116)
);
#214 = CARTESIAN_POINT('',(7.234592110842,-1.645907738667,1.110587401533
));
#215 = CARTESIAN_POINT('',(7.287147708695,-1.692304728382,1.167476291976
));
#216 = CARTESIAN_POINT('',(7.315245242244,-1.712004684235,1.195451092099
));
#217 = CARTESIAN_POINT('',(7.345869112746,-1.728706235678,1.223480786673
));
#218 = CARTESIAN_POINT('',(7.378829914288,-1.742023406111,1.251042276449
));
#219 = CARTESIAN_POINT('',(7.413810798519,-1.751463485346,1.277438298451
));
#220 = CARTESIAN_POINT('',(7.483420333649,-1.761172274674,1.324194064983
));
#221 = CARTESIAN_POINT('',(7.517891261143,-1.762209826489,1.344950920029
));
#222 = CARTESIAN_POINT('',(7.552811922643,-1.7591950549,1.363300977524)
);
#223 = CARTESIAN_POINT('',(7.587256188852,-1.752049691121,1.37861652233)
);
#224 = CARTESIAN_POINT('',(7.620443459698,-1.741010628834,1.390712725175
));
#225 = CARTESIAN_POINT('',(7.68496751867,-1.711007954164,1.409067986399)
);
#226 = CARTESIAN_POINT('',(7.716086306037,-1.691616317792,1.414945452903
));
#227 = CARTESIAN_POINT('',(7.744453518492,-1.66868129912,1.417309649623)
);
#228 = CARTESIAN_POINT('',(7.769573833263,-1.642796927059,1.416494684744
));
#229 = CARTESIAN_POINT('',(7.791165683908,-1.614575912936,1.412898374682
));
#230 = CARTESIAN_POINT('',(7.825984696155,-1.5562734321,1.401208251853)
);
#231 = CARTESIAN_POINT('',(7.839612544397,-1.526385026564,1.3933777579)
);
#232 = CARTESIAN_POINT('',(7.8498394868,-1.495385551478,1.383698964793)
);
#233 = CARTESIAN_POINT('',(7.856629526287,-1.463720437753,1.372449952603
));
#234 = CARTESIAN_POINT('',(7.86,-1.431798463935,1.359850294007));
#235 = CARTESIAN_POINT('',(7.86,-1.4,1.346074467872));
#236 = TOROIDAL_SURFACE('',#237,5.84756097561,1.90243902439);
#237 = AXIS2_PLACEMENT_3D('',#238,#239,#240);
#238 = CARTESIAN_POINT('',(3.75,-0.74756097561,7.78));
#239 = DIRECTION('',(0.E+000,-1.,0.E+000));
#240 = DIRECTION('',(1.,0.E+000,0.E+000));
#241 = ADVANCED_FACE('',(#242),#245,.F.);
#242 = FACE_BOUND('',#243,.F.);
#243 = EDGE_LOOP('',(#244));
#244 = ORIENTED_EDGE('',*,*,#64,.T.);
#245 = PLANE('',#246);
#246 = AXIS2_PLACEMENT_3D('',#247,#248,#249);
#247 = CARTESIAN_POINT('',(3.75,1.25,7.78));
#248 = DIRECTION('',(-0.E+000,-1.,-0.E+000));
#249 = DIRECTION('',(0.E+000,0.E+000,-1.));
#250 = ADVANCED_FACE('',(#251),#271,.T.);
#251 = FACE_BOUND('',#252,.T.);
#252 = EDGE_LOOP('',(#253,#254,#262,#269,#270));
#253 = ORIENTED_EDGE('',*,*,#98,.T.);
#254 = ORIENTED_EDGE('',*,*,#255,.T.);
#255 = EDGE_CURVE('',#75,#256,#258,.T.);
#256 = VERTEX_POINT('',#257);
#257 = CARTESIAN_POINT('',(0.36,0.E+000,-2.856));
#258 = LINE('',#259,#260);
#259 = CARTESIAN_POINT('',(0.36,0.E+000,7.78));
#260 = VECTOR('',#261,1.);
#261 = DIRECTION('',(-0.E+000,-0.E+000,-1.));
#262 = ORIENTED_EDGE('',*,*,#263,.T.);
#263 = EDGE_CURVE('',#256,#256,#264,.T.);
#264 = CIRCLE('',#265,0.36);
#265 = AXIS2_PLACEMENT_3D('',#266,#267,#268);
#266 = CARTESIAN_POINT('',(0.E+000,0.E+000,-2.856));
#267 = DIRECTION('',(0.E+000,0.E+000,1.));
#268 = DIRECTION('',(1.,0.E+000,0.E+000));
#269 = ORIENTED_EDGE('',*,*,#255,.F.);
#270 = ORIENTED_EDGE('',*,*,#74,.T.);
#271 = CYLINDRICAL_SURFACE('',#272,0.36);
#272 = AXIS2_PLACEMENT_3D('',#273,#274,#275);
#273 = CARTESIAN_POINT('',(0.E+000,0.E+000,7.78));
#274 = DIRECTION('',(0.E+000,0.E+000,1.));
#275 = DIRECTION('',(1.,0.E+000,0.E+000));
#276 = ADVANCED_FACE('',(#277),#280,.T.);
#277 = FACE_BOUND('',#278,.T.);
#278 = EDGE_LOOP('',(#279));
#279 = ORIENTED_EDGE('',*,*,#157,.T.);
#280 = PLANE('',#281);
#281 = AXIS2_PLACEMENT_3D('',#282,#283,#284);
#282 = CARTESIAN_POINT('',(3.75,-2.65,7.78));
#283 = DIRECTION('',(-0.E+000,-1.,-0.E+000));
#284 = DIRECTION('',(0.E+000,0.E+000,-1.));
#285 = ADVANCED_FACE('',(#286),#306,.T.);
#286 = FACE_BOUND('',#287,.T.);
#287 = EDGE_LOOP('',(#288,#289,#297,#304,#305));
#288 = ORIENTED_EDGE('',*,*,#167,.F.);
#289 = ORIENTED_EDGE('',*,*,#290,.T.);
#290 = EDGE_CURVE('',#168,#291,#293,.T.);
#291 = VERTEX_POINT('',#292);
#292 = CARTESIAN_POINT('',(7.86,-1.4,-2.856));
#293 = LINE('',#294,#295);
#294 = CARTESIAN_POINT('',(7.86,-1.4,7.78));
#295 = VECTOR('',#296,1.);
#296 = DIRECTION('',(-0.E+000,-0.E+000,-1.));
#297 = ORIENTED_EDGE('',*,*,#298,.T.);
#298 = EDGE_CURVE('',#291,#291,#299,.T.);
#299 = CIRCLE('',#300,0.36);
#300 = AXIS2_PLACEMENT_3D('',#301,#302,#303);
#301 = CARTESIAN_POINT('',(7.5,-1.4,-2.856));
#302 = DIRECTION('',(0.E+000,0.E+000,1.));
#303 = DIRECTION('',(1.,0.E+000,0.E+000));
#304 = ORIENTED_EDGE('',*,*,#290,.F.);
#305 = ORIENTED_EDGE('',*,*,#197,.F.);
#306 = CYLINDRICAL_SURFACE('',#307,0.36);
#307 = AXIS2_PLACEMENT_3D('',#308,#309,#310);
#308 = CARTESIAN_POINT('',(7.5,-1.4,7.78));
#309 = DIRECTION('',(0.E+000,0.E+000,1.));
#310 = DIRECTION('',(1.,0.E+000,0.E+000));
#311 = ADVANCED_FACE('',(#312),#332,.T.);
#312 = FACE_BOUND('',#313,.F.);
#313 = EDGE_LOOP('',(#314,#323,#324,#325));
#314 = ORIENTED_EDGE('',*,*,#315,.F.);
#315 = EDGE_CURVE('',#256,#316,#318,.T.);
#316 = VERTEX_POINT('',#317);
#317 = CARTESIAN_POINT('',(0.216,0.E+000,-3.));
#318 = CIRCLE('',#319,0.144);
#319 = AXIS2_PLACEMENT_3D('',#320,#321,#322);
#320 = CARTESIAN_POINT('',(0.216,0.E+000,-2.856));
#321 = DIRECTION('',(-0.E+000,1.,0.E+000));
#322 = DIRECTION('',(1.,0.E+000,0.E+000));
#323 = ORIENTED_EDGE('',*,*,#263,.T.);
#324 = ORIENTED_EDGE('',*,*,#315,.T.);
#325 = ORIENTED_EDGE('',*,*,#326,.F.);
#326 = EDGE_CURVE('',#316,#316,#327,.T.);
#327 = CIRCLE('',#328,0.216);
#328 = AXIS2_PLACEMENT_3D('',#329,#330,#331);
#329 = CARTESIAN_POINT('',(0.E+000,0.E+000,-3.));
#330 = DIRECTION('',(0.E+000,0.E+000,1.));
#331 = DIRECTION('',(1.,0.E+000,0.E+000));
#332 = TOROIDAL_SURFACE('',#333,0.216,0.144);
#333 = AXIS2_PLACEMENT_3D('',#334,#335,#336);
#334 = CARTESIAN_POINT('',(0.E+000,0.E+000,-2.856));
#335 = DIRECTION('',(-0.E+000,-0.E+000,-1.));
#336 = DIRECTION('',(1.,0.E+000,0.E+000));
#337 = ADVANCED_FACE('',(#338),#358,.T.);
#338 = FACE_BOUND('',#339,.F.);
#339 = EDGE_LOOP('',(#340,#349,#350,#351));
#340 = ORIENTED_EDGE('',*,*,#341,.F.);
#341 = EDGE_CURVE('',#291,#342,#344,.T.);
#342 = VERTEX_POINT('',#343);
#343 = CARTESIAN_POINT('',(7.716,-1.4,-3.));
#344 = CIRCLE('',#345,0.144);
#345 = AXIS2_PLACEMENT_3D('',#346,#347,#348);
#346 = CARTESIAN_POINT('',(7.716,-1.4,-2.856));
#347 = DIRECTION('',(-0.E+000,1.,0.E+000));
#348 = DIRECTION('',(1.,0.E+000,0.E+000));
#349 = ORIENTED_EDGE('',*,*,#298,.T.);
#350 = ORIENTED_EDGE('',*,*,#341,.T.);
#351 = ORIENTED_EDGE('',*,*,#352,.F.);
#352 = EDGE_CURVE('',#342,#342,#353,.T.);
#353 = CIRCLE('',#354,0.216);
#354 = AXIS2_PLACEMENT_3D('',#355,#356,#357);
#355 = CARTESIAN_POINT('',(7.5,-1.4,-3.));
#356 = DIRECTION('',(0.E+000,0.E+000,1.));
#357 = DIRECTION('',(1.,0.E+000,0.E+000));
#358 = TOROIDAL_SURFACE('',#359,0.216,0.144);
#359 = AXIS2_PLACEMENT_3D('',#360,#361,#362);
#360 = CARTESIAN_POINT('',(7.5,-1.4,-2.856));
#361 = DIRECTION('',(-0.E+000,-0.E+000,-1.));
#362 = DIRECTION('',(1.,0.E+000,0.E+000));
#363 = ADVANCED_FACE('',(#364),#367,.F.);
#364 = FACE_BOUND('',#365,.F.);
#365 = EDGE_LOOP('',(#366));
#366 = ORIENTED_EDGE('',*,*,#326,.T.);
#367 = PLANE('',#368);
#368 = AXIS2_PLACEMENT_3D('',#369,#370,#371);
#369 = CARTESIAN_POINT('',(-1.483767504926E-017,1.497958850874E-017,-3.)
);
#370 = DIRECTION('',(0.E+000,0.E+000,1.));
#371 = DIRECTION('',(1.,0.E+000,0.E+000));
#372 = ADVANCED_FACE('',(#373),#376,.F.);
#373 = FACE_BOUND('',#374,.F.);
#374 = EDGE_LOOP('',(#375));
#375 = ORIENTED_EDGE('',*,*,#352,.T.);
#376 = PLANE('',#377);
#377 = AXIS2_PLACEMENT_3D('',#378,#379,#380);
#378 = CARTESIAN_POINT('',(7.5,-1.4,-3.));
#379 = DIRECTION('',(0.E+000,0.E+000,1.));
#380 = DIRECTION('',(1.,0.E+000,0.E+000));
#381 = ( GEOMETRIC_REPRESENTATION_CONTEXT(3)
GLOBAL_UNCERTAINTY_ASSIGNED_CONTEXT((#385)) GLOBAL_UNIT_ASSIGNED_CONTEXT
((#382,#383,#384)) REPRESENTATION_CONTEXT('Context #1',
'3D Context with UNIT and UNCERTAINTY') );
#382 = ( LENGTH_UNIT() NAMED_UNIT(*) SI_UNIT(.MILLI.,.METRE.) );
#383 = ( NAMED_UNIT(*) PLANE_ANGLE_UNIT() SI_UNIT($,.RADIAN.) );
#384 = ( NAMED_UNIT(*) SI_UNIT($,.STERADIAN.) SOLID_ANGLE_UNIT() );
#385 = UNCERTAINTY_MEASURE_WITH_UNIT(LENGTH_MEASURE(1.E-007),#382,
'distance_accuracy_value','confusion accuracy');
#386 = PRODUCT_RELATED_PRODUCT_CATEGORY('part',$,(#7));
#387 = MECHANICAL_DESIGN_GEOMETRIC_PRESENTATION_REPRESENTATION('',(#388,
#396,#403,#410,#417,#425,#432,#439,#446,#453,#460),#381);
#388 = STYLED_ITEM('color',(#389),#17);
#389 = PRESENTATION_STYLE_ASSIGNMENT((#390));
#390 = SURFACE_STYLE_USAGE(.BOTH.,#391);
#391 = SURFACE_SIDE_STYLE('',(#392));
#392 = SURFACE_STYLE_FILL_AREA(#393);
#393 = FILL_AREA_STYLE('',(#394));
#394 = FILL_AREA_STYLE_COLOUR('',#395);
#395 = COLOUR_RGB('',0.136999994516,0.402000010014,0.726999998093);
#396 = STYLED_ITEM('color',(#397),#50);
#397 = PRESENTATION_STYLE_ASSIGNMENT((#398));
#398 = SURFACE_STYLE_USAGE(.BOTH.,#399);
#399 = SURFACE_SIDE_STYLE('',(#400));
#400 = SURFACE_STYLE_FILL_AREA(#401);
#401 = FILL_AREA_STYLE('',(#402));
#402 = FILL_AREA_STYLE_COLOUR('',#395);
#403 = STYLED_ITEM('color',(#404),#143);
#404 = PRESENTATION_STYLE_ASSIGNMENT((#405));
#405 = SURFACE_STYLE_USAGE(.BOTH.,#406);
#406 = SURFACE_SIDE_STYLE('',(#407));
#407 = SURFACE_STYLE_FILL_AREA(#408);
#408 = FILL_AREA_STYLE('',(#409));
#409 = FILL_AREA_STYLE_COLOUR('',#395);
#410 = STYLED_ITEM('color',(#411),#241);
#411 = PRESENTATION_STYLE_ASSIGNMENT((#412));
#412 = SURFACE_STYLE_USAGE(.BOTH.,#413);
#413 = SURFACE_SIDE_STYLE('',(#414));
#414 = SURFACE_STYLE_FILL_AREA(#415);
#415 = FILL_AREA_STYLE('',(#416));
#416 = FILL_AREA_STYLE_COLOUR('',#395);
#417 = STYLED_ITEM('color',(#418),#250);
#418 = PRESENTATION_STYLE_ASSIGNMENT((#419));
#419 = SURFACE_STYLE_USAGE(.BOTH.,#420);
#420 = SURFACE_SIDE_STYLE('',(#421));
#421 = SURFACE_STYLE_FILL_AREA(#422);
#422 = FILL_AREA_STYLE('',(#423));
#423 = FILL_AREA_STYLE_COLOUR('',#424);
#424 = COLOUR_RGB('',0.824000000954,0.819999992847,0.78100001812);
#425 = STYLED_ITEM('color',(#426),#276);
#426 = PRESENTATION_STYLE_ASSIGNMENT((#427));
#427 = SURFACE_STYLE_USAGE(.BOTH.,#428);
#428 = SURFACE_SIDE_STYLE('',(#429));
#429 = SURFACE_STYLE_FILL_AREA(#430);
#430 = FILL_AREA_STYLE('',(#431));
#431 = FILL_AREA_STYLE_COLOUR('',#395);
#432 = STYLED_ITEM('color',(#433),#285);
#433 = PRESENTATION_STYLE_ASSIGNMENT((#434));
#434 = SURFACE_STYLE_USAGE(.BOTH.,#435);
#435 = SURFACE_SIDE_STYLE('',(#436));
#436 = SURFACE_STYLE_FILL_AREA(#437);
#437 = FILL_AREA_STYLE('',(#438));
#438 = FILL_AREA_STYLE_COLOUR('',#424);
#439 = STYLED_ITEM('color',(#440),#311);
#440 = PRESENTATION_STYLE_ASSIGNMENT((#441));
#441 = SURFACE_STYLE_USAGE(.BOTH.,#442);
#442 = SURFACE_SIDE_STYLE('',(#443));
#443 = SURFACE_STYLE_FILL_AREA(#444);
#444 = FILL_AREA_STYLE('',(#445));
#445 = FILL_AREA_STYLE_COLOUR('',#424);
#446 = STYLED_ITEM('color',(#447),#337);
#447 = PRESENTATION_STYLE_ASSIGNMENT((#448));
#448 = SURFACE_STYLE_USAGE(.BOTH.,#449);
#449 = SURFACE_SIDE_STYLE('',(#450));
#450 = SURFACE_STYLE_FILL_AREA(#451);
#451 = FILL_AREA_STYLE('',(#452));
#452 = FILL_AREA_STYLE_COLOUR('',#424);
#453 = STYLED_ITEM('color',(#454),#363);
#454 = PRESENTATION_STYLE_ASSIGNMENT((#455));
#455 = SURFACE_STYLE_USAGE(.BOTH.,#456);
#456 = SURFACE_SIDE_STYLE('',(#457));
#457 = SURFACE_STYLE_FILL_AREA(#458);
#458 = FILL_AREA_STYLE('',(#459));
#459 = FILL_AREA_STYLE_COLOUR('',#424);
#460 = STYLED_ITEM('color',(#461),#372);
#461 = PRESENTATION_STYLE_ASSIGNMENT((#462));
#462 = SURFACE_STYLE_USAGE(.BOTH.,#463);
#463 = SURFACE_SIDE_STYLE('',(#464));
#464 = SURFACE_STYLE_FILL_AREA(#465);
#465 = FILL_AREA_STYLE('',(#466));
#466 = FILL_AREA_STYLE_COLOUR('',#424);
ENDSEC;
END-ISO-10303-21;
