ISO-10303-21;
HEADER;
/* Texas_DSBGA-6_0.9x1.4mm_Layout2x3_P0.5mm.step 3D STEP model for use in ECAD systems
 * Copyright (C) 2018, kicad StepUp
 * 
 * This work is licensed under the [Creative Commons CC-BY-SA 4.0 License](https://creativecommons.org/licenses/by-sa/4.0/legalcode), 
 * with the following exception:
 * To the extent that the creation of electronic designs that use 'Licensed Material' can be considered to be 'Adapted Material', 
 * then the copyright holder waives article 3 of the license with respect to these designs and any generated files which use data provided 
 * as part of the 'Licensed Material'.
 * You are free to use the library data in your own projects without the obligation to share your project files under this or any other license agreement.
 * However, if you wish to redistribute these libraries, or parts thereof (including in modified form) as a collection then the exception above does not apply. 
 * Please refer to https://github.com/KiCad/kicad-packages3D/blob/master/LICENSE.md for further clarification of the exception.
 * Disclaimer of Warranties and Limitation of Liability.
 * These libraries are provided in the hope that they will be useful, but are provided without warranty of any kind, express or implied.
 * *USE 3D CAD DATA AT YOUR OWN RISK*
 * *DO NOT RELY UPON ANY INFORMATION FOUND HERE WITHOUT INDEPENDENT VERIFICATION.*
 * 
 */

FILE_DESCRIPTION(
/* description */ ('model of Texas_DSBGA-6_0.9x1.4mm_Layout2x3_P0.5mm'),
/* implementation_level */ '2;1');

FILE_NAME(
/* name */ 'Texas_DSBGA-6_0.9x1.4mm_Layout2x3_P0.5mm.step',
/* time_stamp */ '2018-11-07T22:17:47',
/* author */ ('kicad StepUp','ksu'),
/* organization */ ('FreeCAD'),
/* preprocessor_version */ 'OCC',
/* originating_system */ 'kicad StepUp',
/* authorisation */ '');

FILE_SCHEMA(('AUTOMOTIVE_DESIGN { 1 0 10303 214 1 1 1 1 }'));
ENDSEC;

DATA;
#1 = APPLICATION_PROTOCOL_DEFINITION('international standard',
'automotive_design',2000,#2);
#2 = APPLICATION_CONTEXT(
'core data for automotive mechanical design processes');
#3 = SHAPE_DEFINITION_REPRESENTATION(#4,#10);
#4 = PRODUCT_DEFINITION_SHAPE('','',#5);
#5 = PRODUCT_DEFINITION('design','',#6,#9);
#6 = PRODUCT_DEFINITION_FORMATION('','',#7);
#7 = PRODUCT('Texas_DSBGA_6_09x14mm_Layout2x3_P05mm',
'Texas_DSBGA_6_09x14mm_Layout2x3_P05mm','',(#8));
#8 = PRODUCT_CONTEXT('',#2,'mechanical');
#9 = PRODUCT_DEFINITION_CONTEXT('part definition',#2,'design');
#10 = ADVANCED_BREP_SHAPE_REPRESENTATION('',(#11,#15),#390);
#11 = AXIS2_PLACEMENT_3D('',#12,#13,#14);
#12 = CARTESIAN_POINT('',(0.E+000,0.E+000,0.E+000));
#13 = DIRECTION('',(0.E+000,0.E+000,1.));
#14 = DIRECTION('',(1.,0.E+000,-0.E+000));
#15 = MANIFOLD_SOLID_BREP('',#16);
#16 = CLOSED_SHELL('',(#17,#57,#88,#123,#147,#230,#242,#267,#286,#305,
#324,#343,#362,#381));
#17 = ADVANCED_FACE('',(#18),#52,.F.);
#18 = FACE_BOUND('',#19,.F.);
#19 = EDGE_LOOP('',(#20,#30,#38,#46));
#20 = ORIENTED_EDGE('',*,*,#21,.F.);
#21 = EDGE_CURVE('',#22,#24,#26,.T.);
#22 = VERTEX_POINT('',#23);
#23 = CARTESIAN_POINT('',(-0.47,0.7,2.5E-002));
#24 = VERTEX_POINT('',#25);
#25 = CARTESIAN_POINT('',(-0.47,0.7,0.75));
#26 = LINE('',#27,#28);
#27 = CARTESIAN_POINT('',(-0.47,0.7,2.5E-002));
#28 = VECTOR('',#29,1.);
#29 = DIRECTION('',(0.E+000,0.E+000,1.));
#30 = ORIENTED_EDGE('',*,*,#31,.T.);
#31 = EDGE_CURVE('',#22,#32,#34,.T.);
#32 = VERTEX_POINT('',#33);
#33 = CARTESIAN_POINT('',(0.47,0.7,2.5E-002));
#34 = LINE('',#35,#36);
#35 = CARTESIAN_POINT('',(-0.47,0.7,2.5E-002));
#36 = VECTOR('',#37,1.);
#37 = DIRECTION('',(1.,-2.22044604925E-016,0.E+000));
#38 = ORIENTED_EDGE('',*,*,#39,.T.);
#39 = EDGE_CURVE('',#32,#40,#42,.T.);
#40 = VERTEX_POINT('',#41);
#41 = CARTESIAN_POINT('',(0.47,0.7,0.75));
#42 = LINE('',#43,#44);
#43 = CARTESIAN_POINT('',(0.47,0.7,2.5E-002));
#44 = VECTOR('',#45,1.);
#45 = DIRECTION('',(0.E+000,0.E+000,1.));
#46 = ORIENTED_EDGE('',*,*,#47,.F.);
#47 = EDGE_CURVE('',#24,#40,#48,.T.);
#48 = LINE('',#49,#50);
#49 = CARTESIAN_POINT('',(-0.47,0.7,0.75));
#50 = VECTOR('',#51,1.);
#51 = DIRECTION('',(1.,-2.22044604925E-016,0.E+000));
#52 = PLANE('',#53);
#53 = AXIS2_PLACEMENT_3D('',#54,#55,#56);
#54 = CARTESIAN_POINT('',(-0.47,0.7,2.5E-002));
#55 = DIRECTION('',(-2.22044604925E-016,-1.,0.E+000));
#56 = DIRECTION('',(0.E+000,0.E+000,1.));
#57 = ADVANCED_FACE('',(#58),#83,.F.);
#58 = FACE_BOUND('',#59,.F.);
#59 = EDGE_LOOP('',(#60,#68,#69,#77));
#60 = ORIENTED_EDGE('',*,*,#61,.F.);
#61 = EDGE_CURVE('',#22,#62,#64,.T.);
#62 = VERTEX_POINT('',#63);
#63 = CARTESIAN_POINT('',(-0.47,-0.7,2.5E-002));
#64 = LINE('',#65,#66);
#65 = CARTESIAN_POINT('',(-0.47,0.7,2.5E-002));
#66 = VECTOR('',#67,1.);
#67 = DIRECTION('',(-2.22044604925E-016,-1.,0.E+000));
#68 = ORIENTED_EDGE('',*,*,#21,.T.);
#69 = ORIENTED_EDGE('',*,*,#70,.T.);
#70 = EDGE_CURVE('',#24,#71,#73,.T.);
#71 = VERTEX_POINT('',#72);
#72 = CARTESIAN_POINT('',(-0.47,-0.7,0.75));
#73 = LINE('',#74,#75);
#74 = CARTESIAN_POINT('',(-0.47,0.7,0.75));
#75 = VECTOR('',#76,1.);
#76 = DIRECTION('',(-2.22044604925E-016,-1.,0.E+000));
#77 = ORIENTED_EDGE('',*,*,#78,.F.);
#78 = EDGE_CURVE('',#62,#71,#79,.T.);
#79 = LINE('',#80,#81);
#80 = CARTESIAN_POINT('',(-0.47,-0.7,2.5E-002));
#81 = VECTOR('',#82,1.);
#82 = DIRECTION('',(0.E+000,0.E+000,1.));
#83 = PLANE('',#84);
#84 = AXIS2_PLACEMENT_3D('',#85,#86,#87);
#85 = CARTESIAN_POINT('',(-0.47,0.7,2.5E-002));
#86 = DIRECTION('',(1.,-2.22044604925E-016,0.E+000));
#87 = DIRECTION('',(0.E+000,0.E+000,1.));
#88 = ADVANCED_FACE('',(#89,#107),#118,.T.);
#89 = FACE_BOUND('',#90,.T.);
#90 = EDGE_LOOP('',(#91,#92,#93,#101));
#91 = ORIENTED_EDGE('',*,*,#47,.F.);
#92 = ORIENTED_EDGE('',*,*,#70,.T.);
#93 = ORIENTED_EDGE('',*,*,#94,.T.);
#94 = EDGE_CURVE('',#71,#95,#97,.T.);
#95 = VERTEX_POINT('',#96);
#96 = CARTESIAN_POINT('',(0.47,-0.7,0.75));
#97 = LINE('',#98,#99);
#98 = CARTESIAN_POINT('',(-0.47,-0.7,0.75));
#99 = VECTOR('',#100,1.);
#100 = DIRECTION('',(1.,-2.22044604925E-016,0.E+000));
#101 = ORIENTED_EDGE('',*,*,#102,.F.);
#102 = EDGE_CURVE('',#40,#95,#103,.T.);
#103 = LINE('',#104,#105);
#104 = CARTESIAN_POINT('',(0.47,0.7,0.75));
#105 = VECTOR('',#106,1.);
#106 = DIRECTION('',(-2.22044604925E-016,-1.,0.E+000));
#107 = FACE_BOUND('',#108,.T.);
#108 = EDGE_LOOP('',(#109));
#109 = ORIENTED_EDGE('',*,*,#110,.T.);
#110 = EDGE_CURVE('',#111,#111,#113,.T.);
#111 = VERTEX_POINT('',#112);
#112 = CARTESIAN_POINT('',(-0.17,0.3,0.75));
#113 = CIRCLE('',#114,0.1);
#114 = AXIS2_PLACEMENT_3D('',#115,#116,#117);
#115 = CARTESIAN_POINT('',(-0.17,0.4,0.75));
#116 = DIRECTION('',(-0.E+000,0.E+000,-1.));
#117 = DIRECTION('',(-2.22044604925E-016,-1.,0.E+000));
#118 = PLANE('',#119);
#119 = AXIS2_PLACEMENT_3D('',#120,#121,#122);
#120 = CARTESIAN_POINT('',(-0.47,0.7,0.75));
#121 = DIRECTION('',(0.E+000,0.E+000,1.));
#122 = DIRECTION('',(-2.22044604925E-016,-1.,0.E+000));
#123 = ADVANCED_FACE('',(#124),#142,.T.);
#124 = FACE_BOUND('',#125,.T.);
#125 = EDGE_LOOP('',(#126,#134,#135,#136));
#126 = ORIENTED_EDGE('',*,*,#127,.F.);
#127 = EDGE_CURVE('',#32,#128,#130,.T.);
#128 = VERTEX_POINT('',#129);
#129 = CARTESIAN_POINT('',(0.47,-0.7,2.5E-002));
#130 = LINE('',#131,#132);
#131 = CARTESIAN_POINT('',(0.47,0.7,2.5E-002));
#132 = VECTOR('',#133,1.);
#133 = DIRECTION('',(-2.22044604925E-016,-1.,0.E+000));
#134 = ORIENTED_EDGE('',*,*,#39,.T.);
#135 = ORIENTED_EDGE('',*,*,#102,.T.);
#136 = ORIENTED_EDGE('',*,*,#137,.F.);
#137 = EDGE_CURVE('',#128,#95,#138,.T.);
#138 = LINE('',#139,#140);
#139 = CARTESIAN_POINT('',(0.47,-0.7,2.5E-002));
#140 = VECTOR('',#141,1.);
#141 = DIRECTION('',(0.E+000,0.E+000,1.));
#142 = PLANE('',#143);
#143 = AXIS2_PLACEMENT_3D('',#144,#145,#146);
#144 = CARTESIAN_POINT('',(0.47,0.7,2.5E-002));
#145 = DIRECTION('',(1.,-2.22044604925E-016,0.E+000));
#146 = DIRECTION('',(0.E+000,0.E+000,1.));
#147 = ADVANCED_FACE('',(#148,#159,#170,#181,#192,#203,#214),#225,.F.);
#148 = FACE_BOUND('',#149,.F.);
#149 = EDGE_LOOP('',(#150,#151,#152,#158));
#150 = ORIENTED_EDGE('',*,*,#31,.F.);
#151 = ORIENTED_EDGE('',*,*,#61,.T.);
#152 = ORIENTED_EDGE('',*,*,#153,.T.);
#153 = EDGE_CURVE('',#62,#128,#154,.T.);
#154 = LINE('',#155,#156);
#155 = CARTESIAN_POINT('',(-0.47,-0.7,2.5E-002));
#156 = VECTOR('',#157,1.);
#157 = DIRECTION('',(1.,-2.22044604925E-016,0.E+000));
#158 = ORIENTED_EDGE('',*,*,#127,.F.);
#159 = FACE_BOUND('',#160,.F.);
#160 = EDGE_LOOP('',(#161));
#161 = ORIENTED_EDGE('',*,*,#162,.F.);
#162 = EDGE_CURVE('',#163,#163,#165,.T.);
#163 = VERTEX_POINT('',#164);
#164 = CARTESIAN_POINT('',(-0.25,0.58500919068,2.5E-002));
#165 = CIRCLE('',#166,8.50091906796E-002);
#166 = AXIS2_PLACEMENT_3D('',#167,#168,#169);
#167 = CARTESIAN_POINT('',(-0.25,0.5,2.5E-002));
#168 = DIRECTION('',(0.E+000,-0.E+000,1.));
#169 = DIRECTION('',(3.445092848398E-016,1.,0.E+000));
#170 = FACE_BOUND('',#171,.F.);
#171 = EDGE_LOOP('',(#172));
#172 = ORIENTED_EDGE('',*,*,#173,.F.);
#173 = EDGE_CURVE('',#174,#174,#176,.T.);
#174 = VERTEX_POINT('',#175);
#175 = CARTESIAN_POINT('',(-0.25,8.50091906796E-002,2.5E-002));
#176 = CIRCLE('',#177,8.50091906796E-002);
#177 = AXIS2_PLACEMENT_3D('',#178,#179,#180);
#178 = CARTESIAN_POINT('',(-0.25,8.612732120994E-017,2.5E-002));
#179 = DIRECTION('',(0.E+000,-0.E+000,1.));
#180 = DIRECTION('',(3.445092848398E-016,1.,0.E+000));
#181 = FACE_BOUND('',#182,.F.);
#182 = EDGE_LOOP('',(#183));
#183 = ORIENTED_EDGE('',*,*,#184,.F.);
#184 = EDGE_CURVE('',#185,#185,#187,.T.);
#185 = VERTEX_POINT('',#186);
#186 = CARTESIAN_POINT('',(-0.25,-0.41499080932,2.5E-002));
#187 = CIRCLE('',#188,8.50091906796E-002);
#188 = AXIS2_PLACEMENT_3D('',#189,#190,#191);
#189 = CARTESIAN_POINT('',(-0.25,-0.5,2.5E-002));
#190 = DIRECTION('',(0.E+000,-0.E+000,1.));
#191 = DIRECTION('',(3.445092848398E-016,1.,0.E+000));
#192 = FACE_BOUND('',#193,.F.);
#193 = EDGE_LOOP('',(#194));
#194 = ORIENTED_EDGE('',*,*,#195,.F.);
#195 = EDGE_CURVE('',#196,#196,#198,.T.);
#196 = VERTEX_POINT('',#197);
#197 = CARTESIAN_POINT('',(0.25,-0.41499080932,2.5E-002));
#198 = CIRCLE('',#199,8.50091906796E-002);
#199 = AXIS2_PLACEMENT_3D('',#200,#201,#202);
#200 = CARTESIAN_POINT('',(0.25,-0.5,2.5E-002));
#201 = DIRECTION('',(0.E+000,-0.E+000,1.));
#202 = DIRECTION('',(3.445092848398E-016,1.,0.E+000));
#203 = FACE_BOUND('',#204,.F.);
#204 = EDGE_LOOP('',(#205));
#205 = ORIENTED_EDGE('',*,*,#206,.F.);
#206 = EDGE_CURVE('',#207,#207,#209,.T.);
#207 = VERTEX_POINT('',#208);
#208 = CARTESIAN_POINT('',(0.25,8.50091906796E-002,2.5E-002));
#209 = CIRCLE('',#210,8.50091906796E-002);
#210 = AXIS2_PLACEMENT_3D('',#211,#212,#213);
#211 = CARTESIAN_POINT('',(0.25,-8.612732120994E-017,2.5E-002));
#212 = DIRECTION('',(0.E+000,-0.E+000,1.));
#213 = DIRECTION('',(3.445092848398E-016,1.,0.E+000));
#214 = FACE_BOUND('',#215,.F.);
#215 = EDGE_LOOP('',(#216));
#216 = ORIENTED_EDGE('',*,*,#217,.F.);
#217 = EDGE_CURVE('',#218,#218,#220,.T.);
#218 = VERTEX_POINT('',#219);
#219 = CARTESIAN_POINT('',(0.25,0.58500919068,2.5E-002));
#220 = CIRCLE('',#221,8.50091906796E-002);
#221 = AXIS2_PLACEMENT_3D('',#222,#223,#224);
#222 = CARTESIAN_POINT('',(0.25,0.5,2.5E-002));
#223 = DIRECTION('',(0.E+000,-0.E+000,1.));
#224 = DIRECTION('',(3.445092848398E-016,1.,0.E+000));
#225 = PLANE('',#226);
#226 = AXIS2_PLACEMENT_3D('',#227,#228,#229);
#227 = CARTESIAN_POINT('',(-0.47,0.7,2.5E-002));
#228 = DIRECTION('',(0.E+000,0.E+000,1.));
#229 = DIRECTION('',(-2.22044604925E-016,-1.,0.E+000));
#230 = ADVANCED_FACE('',(#231),#237,.T.);
#231 = FACE_BOUND('',#232,.T.);
#232 = EDGE_LOOP('',(#233,#234,#235,#236));
#233 = ORIENTED_EDGE('',*,*,#78,.F.);
#234 = ORIENTED_EDGE('',*,*,#153,.T.);
#235 = ORIENTED_EDGE('',*,*,#137,.T.);
#236 = ORIENTED_EDGE('',*,*,#94,.F.);
#237 = PLANE('',#238);
#238 = AXIS2_PLACEMENT_3D('',#239,#240,#241);
#239 = CARTESIAN_POINT('',(-0.47,-0.7,2.5E-002));
#240 = DIRECTION('',(-2.22044604925E-016,-1.,0.E+000));
#241 = DIRECTION('',(0.E+000,0.E+000,1.));
#242 = ADVANCED_FACE('',(#243),#262,.F.);
#243 = FACE_BOUND('',#244,.T.);
#244 = EDGE_LOOP('',(#245,#246,#254,#261));
#245 = ORIENTED_EDGE('',*,*,#110,.F.);
#246 = ORIENTED_EDGE('',*,*,#247,.T.);
#247 = EDGE_CURVE('',#111,#248,#250,.T.);
#248 = VERTEX_POINT('',#249);
#249 = CARTESIAN_POINT('',(-0.17,0.3,0.55));
#250 = LINE('',#251,#252);
#251 = CARTESIAN_POINT('',(-0.17,0.3,0.95));
#252 = VECTOR('',#253,1.);
#253 = DIRECTION('',(-0.E+000,0.E+000,-1.));
#254 = ORIENTED_EDGE('',*,*,#255,.F.);
#255 = EDGE_CURVE('',#248,#248,#256,.T.);
#256 = CIRCLE('',#257,0.1);
#257 = AXIS2_PLACEMENT_3D('',#258,#259,#260);
#258 = CARTESIAN_POINT('',(-0.17,0.4,0.55));
#259 = DIRECTION('',(0.E+000,0.E+000,1.));
#260 = DIRECTION('',(-2.22044604925E-016,-1.,0.E+000));
#261 = ORIENTED_EDGE('',*,*,#247,.F.);
#262 = CYLINDRICAL_SURFACE('',#263,0.1);
#263 = AXIS2_PLACEMENT_3D('',#264,#265,#266);
#264 = CARTESIAN_POINT('',(-0.17,0.4,0.95));
#265 = DIRECTION('',(0.E+000,0.E+000,-1.));
#266 = DIRECTION('',(-2.22044604925E-016,-1.,0.E+000));
#267 = ADVANCED_FACE('',(#268),#281,.T.);
#268 = FACE_BOUND('',#269,.T.);
#269 = EDGE_LOOP('',(#270,#271,#280));
#270 = ORIENTED_EDGE('',*,*,#162,.F.);
#271 = ORIENTED_EDGE('',*,*,#272,.F.);
#272 = EDGE_CURVE('',#273,#163,#275,.T.);
#273 = VERTEX_POINT('',#274);
#274 = CARTESIAN_POINT('',(-0.25,0.5,-6.25E-003));
#275 = CIRCLE('',#276,0.13125);
#276 = AXIS2_PLACEMENT_3D('',#277,#278,#279);
#277 = CARTESIAN_POINT('',(-0.25,0.5,0.125));
#278 = DIRECTION('',(1.,-5.894386446692E-016,0.E+000));
#279 = DIRECTION('',(5.894386446692E-016,1.,0.E+000));
#280 = ORIENTED_EDGE('',*,*,#272,.T.);
#281 = SPHERICAL_SURFACE('',#282,0.13125);
#282 = AXIS2_PLACEMENT_3D('',#283,#284,#285);
#283 = CARTESIAN_POINT('',(-0.25,0.5,0.125));
#284 = DIRECTION('',(0.E+000,0.E+000,1.));
#285 = DIRECTION('',(3.445092848398E-016,1.,0.E+000));
#286 = ADVANCED_FACE('',(#287),#300,.T.);
#287 = FACE_BOUND('',#288,.T.);
#288 = EDGE_LOOP('',(#289,#290,#299));
#289 = ORIENTED_EDGE('',*,*,#173,.F.);
#290 = ORIENTED_EDGE('',*,*,#291,.F.);
#291 = EDGE_CURVE('',#292,#174,#294,.T.);
#292 = VERTEX_POINT('',#293);
#293 = CARTESIAN_POINT('',(-0.25,9.416406582935E-017,-6.25E-003));
#294 = CIRCLE('',#295,0.13125);
#295 = AXIS2_PLACEMENT_3D('',#296,#297,#298);
#296 = CARTESIAN_POINT('',(-0.25,8.612732120994E-017,0.125));
#297 = DIRECTION('',(1.,-5.894386446692E-016,0.E+000));
#298 = DIRECTION('',(5.894386446692E-016,1.,0.E+000));
#299 = ORIENTED_EDGE('',*,*,#291,.T.);
#300 = SPHERICAL_SURFACE('',#301,0.13125);
#301 = AXIS2_PLACEMENT_3D('',#302,#303,#304);
#302 = CARTESIAN_POINT('',(-0.25,8.612732120994E-017,0.125));
#303 = DIRECTION('',(0.E+000,0.E+000,1.));
#304 = DIRECTION('',(3.445092848398E-016,1.,0.E+000));
#305 = ADVANCED_FACE('',(#306),#319,.T.);
#306 = FACE_BOUND('',#307,.T.);
#307 = EDGE_LOOP('',(#308,#309,#318));
#308 = ORIENTED_EDGE('',*,*,#184,.F.);
#309 = ORIENTED_EDGE('',*,*,#310,.F.);
#310 = EDGE_CURVE('',#311,#185,#313,.T.);
#311 = VERTEX_POINT('',#312);
#312 = CARTESIAN_POINT('',(-0.25,-0.5,-6.25E-003));
#313 = CIRCLE('',#314,0.13125);
#314 = AXIS2_PLACEMENT_3D('',#315,#316,#317);
#315 = CARTESIAN_POINT('',(-0.25,-0.5,0.125));
#316 = DIRECTION('',(1.,-5.894386446692E-016,0.E+000));
#317 = DIRECTION('',(5.894386446692E-016,1.,0.E+000));
#318 = ORIENTED_EDGE('',*,*,#310,.T.);
#319 = SPHERICAL_SURFACE('',#320,0.13125);
#320 = AXIS2_PLACEMENT_3D('',#321,#322,#323);
#321 = CARTESIAN_POINT('',(-0.25,-0.5,0.125));
#322 = DIRECTION('',(0.E+000,0.E+000,1.));
#323 = DIRECTION('',(3.445092848398E-016,1.,0.E+000));
#324 = ADVANCED_FACE('',(#325),#338,.T.);
#325 = FACE_BOUND('',#326,.T.);
#326 = EDGE_LOOP('',(#327,#328,#337));
#327 = ORIENTED_EDGE('',*,*,#195,.F.);
#328 = ORIENTED_EDGE('',*,*,#329,.F.);
#329 = EDGE_CURVE('',#330,#196,#332,.T.);
#330 = VERTEX_POINT('',#331);
#331 = CARTESIAN_POINT('',(0.25,-0.5,-6.25E-003));
#332 = CIRCLE('',#333,0.13125);
#333 = AXIS2_PLACEMENT_3D('',#334,#335,#336);
#334 = CARTESIAN_POINT('',(0.25,-0.5,0.125));
#335 = DIRECTION('',(1.,-5.894386446692E-016,0.E+000));
#336 = DIRECTION('',(5.894386446692E-016,1.,0.E+000));
#337 = ORIENTED_EDGE('',*,*,#329,.T.);
#338 = SPHERICAL_SURFACE('',#339,0.13125);
#339 = AXIS2_PLACEMENT_3D('',#340,#341,#342);
#340 = CARTESIAN_POINT('',(0.25,-0.5,0.125));
#341 = DIRECTION('',(0.E+000,0.E+000,1.));
#342 = DIRECTION('',(3.445092848398E-016,1.,0.E+000));
#343 = ADVANCED_FACE('',(#344),#357,.T.);
#344 = FACE_BOUND('',#345,.T.);
#345 = EDGE_LOOP('',(#346,#347,#356));
#346 = ORIENTED_EDGE('',*,*,#206,.F.);
#347 = ORIENTED_EDGE('',*,*,#348,.F.);
#348 = EDGE_CURVE('',#349,#207,#351,.T.);
#349 = VERTEX_POINT('',#350);
#350 = CARTESIAN_POINT('',(0.25,-7.809057659054E-017,-6.25E-003));
#351 = CIRCLE('',#352,0.13125);
#352 = AXIS2_PLACEMENT_3D('',#353,#354,#355);
#353 = CARTESIAN_POINT('',(0.25,-8.612732120994E-017,0.125));
#354 = DIRECTION('',(1.,-5.894386446692E-016,0.E+000));
#355 = DIRECTION('',(5.894386446692E-016,1.,0.E+000));
#356 = ORIENTED_EDGE('',*,*,#348,.T.);
#357 = SPHERICAL_SURFACE('',#358,0.13125);
#358 = AXIS2_PLACEMENT_3D('',#359,#360,#361);
#359 = CARTESIAN_POINT('',(0.25,-8.612732120994E-017,0.125));
#360 = DIRECTION('',(0.E+000,0.E+000,1.));
#361 = DIRECTION('',(3.445092848398E-016,1.,0.E+000));
#362 = ADVANCED_FACE('',(#363),#376,.T.);
#363 = FACE_BOUND('',#364,.T.);
#364 = EDGE_LOOP('',(#365,#366,#375));
#365 = ORIENTED_EDGE('',*,*,#217,.F.);
#366 = ORIENTED_EDGE('',*,*,#367,.F.);
#367 = EDGE_CURVE('',#368,#218,#370,.T.);
#368 = VERTEX_POINT('',#369);
#369 = CARTESIAN_POINT('',(0.25,0.5,-6.25E-003));
#370 = CIRCLE('',#371,0.13125);
#371 = AXIS2_PLACEMENT_3D('',#372,#373,#374);
#372 = CARTESIAN_POINT('',(0.25,0.5,0.125));
#373 = DIRECTION('',(1.,-5.894386446692E-016,0.E+000));
#374 = DIRECTION('',(5.894386446692E-016,1.,0.E+000));
#375 = ORIENTED_EDGE('',*,*,#367,.T.);
#376 = SPHERICAL_SURFACE('',#377,0.13125);
#377 = AXIS2_PLACEMENT_3D('',#378,#379,#380);
#378 = CARTESIAN_POINT('',(0.25,0.5,0.125));
#379 = DIRECTION('',(0.E+000,0.E+000,1.));
#380 = DIRECTION('',(3.445092848398E-016,1.,0.E+000));
#381 = ADVANCED_FACE('',(#382),#385,.T.);
#382 = FACE_BOUND('',#383,.T.);
#383 = EDGE_LOOP('',(#384));
#384 = ORIENTED_EDGE('',*,*,#255,.T.);
#385 = PLANE('',#386);
#386 = AXIS2_PLACEMENT_3D('',#387,#388,#389);
#387 = CARTESIAN_POINT('',(-0.17,0.4,0.55));
#388 = DIRECTION('',(0.E+000,0.E+000,1.));
#389 = DIRECTION('',(-2.22044604925E-016,-1.,0.E+000));
#390 = ( GEOMETRIC_REPRESENTATION_CONTEXT(3)
GLOBAL_UNCERTAINTY_ASSIGNED_CONTEXT((#394)) GLOBAL_UNIT_ASSIGNED_CONTEXT
((#391,#392,#393)) REPRESENTATION_CONTEXT('Context #1',
'3D Context with UNIT and UNCERTAINTY') );
#391 = ( LENGTH_UNIT() NAMED_UNIT(*) SI_UNIT(.MILLI.,.METRE.) );
#392 = ( NAMED_UNIT(*) PLANE_ANGLE_UNIT() SI_UNIT($,.RADIAN.) );
#393 = ( NAMED_UNIT(*) SI_UNIT($,.STERADIAN.) SOLID_ANGLE_UNIT() );
#394 = UNCERTAINTY_MEASURE_WITH_UNIT(LENGTH_MEASURE(1.E-007),#391,
'distance_accuracy_value','confusion accuracy');
#395 = PRODUCT_RELATED_PRODUCT_CATEGORY('part',$,(#7));
#396 = MECHANICAL_DESIGN_GEOMETRIC_PRESENTATION_REPRESENTATION('',(#397,
#405,#412,#419,#426,#433,#440,#448,#456,#463,#470,#477,#484,#491),
#390);
#397 = STYLED_ITEM('color',(#398),#17);
#398 = PRESENTATION_STYLE_ASSIGNMENT((#399));
#399 = SURFACE_STYLE_USAGE(.BOTH.,#400);
#400 = SURFACE_SIDE_STYLE('',(#401));
#401 = SURFACE_STYLE_FILL_AREA(#402);
#402 = FILL_AREA_STYLE('',(#403));
#403 = FILL_AREA_STYLE_COLOUR('',#404);
#404 = COLOUR_RGB('',0.148000001907,0.144999995828,0.144999995828);
#405 = STYLED_ITEM('color',(#406),#57);
#406 = PRESENTATION_STYLE_ASSIGNMENT((#407));
#407 = SURFACE_STYLE_USAGE(.BOTH.,#408);
#408 = SURFACE_SIDE_STYLE('',(#409));
#409 = SURFACE_STYLE_FILL_AREA(#410);
#410 = FILL_AREA_STYLE('',(#411));
#411 = FILL_AREA_STYLE_COLOUR('',#404);
#412 = STYLED_ITEM('color',(#413),#88);
#413 = PRESENTATION_STYLE_ASSIGNMENT((#414));
#414 = SURFACE_STYLE_USAGE(.BOTH.,#415);
#415 = SURFACE_SIDE_STYLE('',(#416));
#416 = SURFACE_STYLE_FILL_AREA(#417);
#417 = FILL_AREA_STYLE('',(#418));
#418 = FILL_AREA_STYLE_COLOUR('',#404);
#419 = STYLED_ITEM('color',(#420),#123);
#420 = PRESENTATION_STYLE_ASSIGNMENT((#421));
#421 = SURFACE_STYLE_USAGE(.BOTH.,#422);
#422 = SURFACE_SIDE_STYLE('',(#423));
#423 = SURFACE_STYLE_FILL_AREA(#424);
#424 = FILL_AREA_STYLE('',(#425));
#425 = FILL_AREA_STYLE_COLOUR('',#404);
#426 = STYLED_ITEM('color',(#427),#147);
#427 = PRESENTATION_STYLE_ASSIGNMENT((#428));
#428 = SURFACE_STYLE_USAGE(.BOTH.,#429);
#429 = SURFACE_SIDE_STYLE('',(#430));
#430 = SURFACE_STYLE_FILL_AREA(#431);
#431 = FILL_AREA_STYLE('',(#432));
#432 = FILL_AREA_STYLE_COLOUR('',#404);
#433 = STYLED_ITEM('color',(#434),#230);
#434 = PRESENTATION_STYLE_ASSIGNMENT((#435));
#435 = SURFACE_STYLE_USAGE(.BOTH.,#436);
#436 = SURFACE_SIDE_STYLE('',(#437));
#437 = SURFACE_STYLE_FILL_AREA(#438);
#438 = FILL_AREA_STYLE('',(#439));
#439 = FILL_AREA_STYLE_COLOUR('',#404);
#440 = STYLED_ITEM('color',(#441),#242);
#441 = PRESENTATION_STYLE_ASSIGNMENT((#442));
#442 = SURFACE_STYLE_USAGE(.BOTH.,#443);
#443 = SURFACE_SIDE_STYLE('',(#444));
#444 = SURFACE_STYLE_FILL_AREA(#445);
#445 = FILL_AREA_STYLE('',(#446));
#446 = FILL_AREA_STYLE_COLOUR('',#447);
#447 = COLOUR_RGB('',0.690999984741,0.663999974728,0.597999989986);
#448 = STYLED_ITEM('color',(#449),#267);
#449 = PRESENTATION_STYLE_ASSIGNMENT((#450));
#450 = SURFACE_STYLE_USAGE(.BOTH.,#451);
#451 = SURFACE_SIDE_STYLE('',(#452));
#452 = SURFACE_STYLE_FILL_AREA(#453);
#453 = FILL_AREA_STYLE('',(#454));
#454 = FILL_AREA_STYLE_COLOUR('',#455);
#455 = COLOUR_RGB('',0.824000000954,0.819999992847,0.78100001812);
#456 = STYLED_ITEM('color',(#457),#286);
#457 = PRESENTATION_STYLE_ASSIGNMENT((#458));
#458 = SURFACE_STYLE_USAGE(.BOTH.,#459);
#459 = SURFACE_SIDE_STYLE('',(#460));
#460 = SURFACE_STYLE_FILL_AREA(#461);
#461 = FILL_AREA_STYLE('',(#462));
#462 = FILL_AREA_STYLE_COLOUR('',#455);
#463 = STYLED_ITEM('color',(#464),#305);
#464 = PRESENTATION_STYLE_ASSIGNMENT((#465));
#465 = SURFACE_STYLE_USAGE(.BOTH.,#466);
#466 = SURFACE_SIDE_STYLE('',(#467));
#467 = SURFACE_STYLE_FILL_AREA(#468);
#468 = FILL_AREA_STYLE('',(#469));
#469 = FILL_AREA_STYLE_COLOUR('',#455);
#470 = STYLED_ITEM('color',(#471),#324);
#471 = PRESENTATION_STYLE_ASSIGNMENT((#472));
#472 = SURFACE_STYLE_USAGE(.BOTH.,#473);
#473 = SURFACE_SIDE_STYLE('',(#474));
#474 = SURFACE_STYLE_FILL_AREA(#475);
#475 = FILL_AREA_STYLE('',(#476));
#476 = FILL_AREA_STYLE_COLOUR('',#455);
#477 = STYLED_ITEM('color',(#478),#343);
#478 = PRESENTATION_STYLE_ASSIGNMENT((#479));
#479 = SURFACE_STYLE_USAGE(.BOTH.,#480);
#480 = SURFACE_SIDE_STYLE('',(#481));
#481 = SURFACE_STYLE_FILL_AREA(#482);
#482 = FILL_AREA_STYLE('',(#483));
#483 = FILL_AREA_STYLE_COLOUR('',#455);
#484 = STYLED_ITEM('color',(#485),#362);
#485 = PRESENTATION_STYLE_ASSIGNMENT((#486));
#486 = SURFACE_STYLE_USAGE(.BOTH.,#487);
#487 = SURFACE_SIDE_STYLE('',(#488));
#488 = SURFACE_STYLE_FILL_AREA(#489);
#489 = FILL_AREA_STYLE('',(#490));
#490 = FILL_AREA_STYLE_COLOUR('',#455);
#491 = STYLED_ITEM('color',(#492),#381);
#492 = PRESENTATION_STYLE_ASSIGNMENT((#493));
#493 = SURFACE_STYLE_USAGE(.BOTH.,#494);
#494 = SURFACE_SIDE_STYLE('',(#495));
#495 = SURFACE_STYLE_FILL_AREA(#496);
#496 = FILL_AREA_STYLE('',(#497));
#497 = FILL_AREA_STYLE_COLOUR('',#447);
ENDSEC;
END-ISO-10303-21;
