ISO-10303-21;
HEADER;
/* RV_Disc_D9mm_W5.7mm_P5mm.step 3D STEP model for use in ECAD systems
 * Copyright (C) 2018, kicad StepUp
 * 
 * This work is licensed under the [Creative Commons CC-BY-SA 4.0 License](https://creativecommons.org/licenses/by-sa/4.0/legalcode), 
 * with the following exception:
 * To the extent that the creation of electronic designs that use 'Licensed Material' can be considered to be 'Adapted Material', 
 * then the copyright holder waives article 3 of the license with respect to these designs and any generated files which use data provided 
 * as part of the 'Licensed Material'.
 * You are free to use the library data in your own projects without the obligation to share your project files under this or any other license agreement.
 * However, if you wish to redistribute these libraries, or parts thereof (including in modified form) as a collection then the exception above does not apply. 
 * Please refer to https://github.com/KiCad/kicad-packages3D/blob/master/LICENSE.md for further clarification of the exception.
 * Disclaimer of Warranties and Limitation of Liability.
 * These libraries are provided in the hope that they will be useful, but are provided without warranty of any kind, express or implied.
 * *USE 3D CAD DATA AT YOUR OWN RISK*
 * *DO NOT RELY UPON ANY INFORMATION FOUND HERE WITHOUT INDEPENDENT VERIFICATION.*
 * 
 */

FILE_DESCRIPTION(
/* description */ ('model of RV_Disc_D9mm_W5.7mm_P5mm'),
/* implementation_level */ '2;1');

FILE_NAME(
/* name */ 'RV_Disc_D9mm_W5.7mm_P5mm.step',
/* time_stamp */ '2018-11-11T21:13:14',
/* author */ ('kicad StepUp','ksu'),
/* organization */ ('FreeCAD'),
/* preprocessor_version */ 'OCC',
/* originating_system */ 'kicad StepUp',
/* authorisation */ '');

FILE_SCHEMA(('AUTOMOTIVE_DESIGN { 1 0 10303 214 1 1 1 1 }'));
ENDSEC;

DATA;
#1 = APPLICATION_PROTOCOL_DEFINITION('international standard',
'automotive_design',2000,#2);
#2 = APPLICATION_CONTEXT(
'core data for automotive mechanical design processes');
#3 = SHAPE_DEFINITION_REPRESENTATION(#4,#10);
#4 = PRODUCT_DEFINITION_SHAPE('','',#5);
#5 = PRODUCT_DEFINITION('design','',#6,#9);
#6 = PRODUCT_DEFINITION_FORMATION('','',#7);
#7 = PRODUCT('RV_Disc_D9mm_W57mm_P5mm','RV_Disc_D9mm_W57mm_P5mm','',(#8)
);
#8 = PRODUCT_CONTEXT('',#2,'mechanical');
#9 = PRODUCT_DEFINITION_CONTEXT('part definition',#2,'design');
#10 = ADVANCED_BREP_SHAPE_REPRESENTATION('',(#11,#15),#406);
#11 = AXIS2_PLACEMENT_3D('',#12,#13,#14);
#12 = CARTESIAN_POINT('',(0.E+000,0.E+000,0.E+000));
#13 = DIRECTION('',(0.E+000,0.E+000,1.));
#14 = DIRECTION('',(1.,0.E+000,-0.E+000));
#15 = MANIFOLD_SOLID_BREP('',#16);
#16 = CLOSED_SHELL('',(#17,#50,#154,#266,#275,#301,#310,#336,#362,#388,
#397));
#17 = ADVANCED_FACE('',(#18),#45,.T.);
#18 = FACE_BOUND('',#19,.F.);
#19 = EDGE_LOOP('',(#20,#30,#37,#38));
#20 = ORIENTED_EDGE('',*,*,#21,.T.);
#21 = EDGE_CURVE('',#22,#24,#26,.T.);
#22 = VERTEX_POINT('',#23);
#23 = CARTESIAN_POINT('',(7.,-1.430487804878,4.53));
#24 = VERTEX_POINT('',#25);
#25 = CARTESIAN_POINT('',(7.,-1.569512195122,4.53));
#26 = LINE('',#27,#28);
#27 = CARTESIAN_POINT('',(7.,1.35,4.53));
#28 = VECTOR('',#29,1.);
#29 = DIRECTION('',(0.E+000,-1.,0.E+000));
#30 = ORIENTED_EDGE('',*,*,#31,.T.);
#31 = EDGE_CURVE('',#24,#24,#32,.T.);
#32 = CIRCLE('',#33,4.5);
#33 = AXIS2_PLACEMENT_3D('',#34,#35,#36);
#34 = CARTESIAN_POINT('',(2.5,-1.569512195122,4.53));
#35 = DIRECTION('',(0.E+000,-1.,0.E+000));
#36 = DIRECTION('',(1.,0.E+000,0.E+000));
#37 = ORIENTED_EDGE('',*,*,#21,.F.);
#38 = ORIENTED_EDGE('',*,*,#39,.F.);
#39 = EDGE_CURVE('',#22,#22,#40,.T.);
#40 = CIRCLE('',#41,4.5);
#41 = AXIS2_PLACEMENT_3D('',#42,#43,#44);
#42 = CARTESIAN_POINT('',(2.5,-1.430487804878,4.53));
#43 = DIRECTION('',(0.E+000,-1.,0.E+000));
#44 = DIRECTION('',(1.,0.E+000,0.E+000));
#45 = CYLINDRICAL_SURFACE('',#46,4.5);
#46 = AXIS2_PLACEMENT_3D('',#47,#48,#49);
#47 = CARTESIAN_POINT('',(2.5,1.35,4.53));
#48 = DIRECTION('',(0.E+000,1.,0.E+000));
#49 = DIRECTION('',(1.,0.E+000,0.E+000));
#50 = ADVANCED_FACE('',(#51,#71),#137,.T.);
#51 = FACE_BOUND('',#52,.F.);
#52 = EDGE_LOOP('',(#53,#54,#63,#70));
#53 = ORIENTED_EDGE('',*,*,#39,.T.);
#54 = ORIENTED_EDGE('',*,*,#55,.T.);
#55 = EDGE_CURVE('',#22,#56,#58,.T.);
#56 = VERTEX_POINT('',#57);
#57 = CARTESIAN_POINT('',(4.219512195122,1.35,4.53));
#58 = CIRCLE('',#59,2.780487804878);
#59 = AXIS2_PLACEMENT_3D('',#60,#61,#62);
#60 = CARTESIAN_POINT('',(4.219512195122,-1.430487804878,4.53));
#61 = DIRECTION('',(0.E+000,0.E+000,1.));
#62 = DIRECTION('',(1.,0.E+000,0.E+000));
#63 = ORIENTED_EDGE('',*,*,#64,.F.);
#64 = EDGE_CURVE('',#56,#56,#65,.T.);
#65 = CIRCLE('',#66,1.719512195122);
#66 = AXIS2_PLACEMENT_3D('',#67,#68,#69);
#67 = CARTESIAN_POINT('',(2.5,1.35,4.53));
#68 = DIRECTION('',(0.E+000,-1.,0.E+000));
#69 = DIRECTION('',(1.,0.E+000,0.E+000));
#70 = ORIENTED_EDGE('',*,*,#55,.F.);
#71 = FACE_BOUND('',#72,.F.);
#72 = EDGE_LOOP('',(#73,#96));
#73 = ORIENTED_EDGE('',*,*,#74,.T.);
#74 = EDGE_CURVE('',#75,#77,#79,.T.);
#75 = VERTEX_POINT('',#76);
#76 = CARTESIAN_POINT('',(0.27,0.E+000,1.084966610649));
#77 = VERTEX_POINT('',#78);
#78 = CARTESIAN_POINT('',(-7.011769981244E-002,-0.260736472656,
1.155269497587));
#79 = B_SPLINE_CURVE_WITH_KNOTS('',8,(#80,#81,#82,#83,#84,#85,#86,#87,
#88,#89,#90,#91,#92,#93,#94,#95),.UNSPECIFIED.,.F.,.F.,(9,7,9),(
0.E+000,0.373202965844,1.),.UNSPECIFIED.);
#80 = CARTESIAN_POINT('',(0.27,5.551115123126E-017,1.084966610649));
#81 = CARTESIAN_POINT('',(0.27,-2.203538748667E-002,1.069218113865));
#82 = CARTESIAN_POINT('',(0.267944497675,-4.435716791838E-002,
1.054996812835));
#83 = CARTESIAN_POINT('',(0.263741051468,-6.675602118408E-002,
1.042495240836));
#84 = CARTESIAN_POINT('',(0.257314404987,-8.898267983136E-002,
1.031911568952));
#85 = CARTESIAN_POINT('',(0.248630991606,-0.110746393221,1.023432923496)
);
#86 = CARTESIAN_POINT('',(0.237719493945,-0.131725407717,1.017215983244)
);
#87 = CARTESIAN_POINT('',(0.224687458248,-0.151589462909,1.013364856483)
);
#88 = CARTESIAN_POINT('',(0.184619463165,-0.201012545386,1.009456477543)
);
#89 = CARTESIAN_POINT('',(0.154049057609,-0.228031084454,1.013752190187)
);
#90 = CARTESIAN_POINT('',(0.119013489717,-0.249529319618,1.024964962083)
);
#91 = CARTESIAN_POINT('',(8.106696072241E-002,-0.264515763477,
1.042514333873));
#92 = CARTESIAN_POINT('',(4.189752468402E-002,-0.272742578767,
1.065376861902));
#93 = CARTESIAN_POINT('',(2.941221829086E-003,-0.274479476819,
1.092459091716));
#94 = CARTESIAN_POINT('',(-3.467530976426E-002,-0.270267701029,
1.122721577493));
#95 = CARTESIAN_POINT('',(-7.011769981244E-002,-0.260736472656,
1.155269497587));
#96 = ORIENTED_EDGE('',*,*,#97,.T.);
#97 = EDGE_CURVE('',#77,#75,#98,.T.);
#98 = B_SPLINE_CURVE_WITH_KNOTS('',7,(#99,#100,#101,#102,#103,#104,#105,
#106,#107,#108,#109,#110,#111,#112,#113,#114,#115,#116,#117,#118,
#119,#120,#121,#122,#123,#124,#125,#126,#127,#128,#129,#130,#131,
#132,#133,#134,#135,#136),.UNSPECIFIED.,.F.,.F.,(8,6,6,6,6,6,8),(
0.E+000,0.14547911929,0.341695935868,0.492247358453,0.636616835521,
0.801410784527,1.),.UNSPECIFIED.);
#99 = CARTESIAN_POINT('',(-7.011769981244E-002,-0.260736472656,
1.155269497587));
#100 = CARTESIAN_POINT('',(-9.436993178792E-002,-0.254214520801,
1.177541125075));
#101 = CARTESIAN_POINT('',(-0.117616162425,-0.245140998765,
1.200935610605));
#102 = CARTESIAN_POINT('',(-0.13958881469,-0.233712847176,1.225173149731
));
#103 = CARTESIAN_POINT('',(-0.160068403704,-0.220140842979,
1.249997643313));
#104 = CARTESIAN_POINT('',(-0.178873582159,-0.204636092513,
1.275173331722));
#105 = CARTESIAN_POINT('',(-0.195849522844,-0.187403553383,
1.300477146748));
#106 = CARTESIAN_POINT('',(-0.231092978976,-0.143338490051,
1.359688597064));
#107 = CARTESIAN_POINT('',(-0.2477304851,-0.115273646831,1.393492949698)
);
#108 = CARTESIAN_POINT('',(-0.260441659773,-8.492904815344E-002,
1.426574119292));
#109 = CARTESIAN_POINT('',(-0.268904928778,-5.279367191231E-002,
1.458363295619));
#110 = CARTESIAN_POINT('',(-0.272790558717,-1.941297189725E-002,
1.488178510107));
#111 = CARTESIAN_POINT('',(-0.271783146026,1.456318710677E-002,
1.515185425967));
#112 = CARTESIAN_POINT('',(-0.260924205392,7.424385416841E-002,
1.556192399394));
#113 = CARTESIAN_POINT('',(-0.253187899249,0.100020891052,1.571748698005
));
#114 = CARTESIAN_POINT('',(-0.242328155169,0.125283819858,1.58459972133)
);
#115 = CARTESIAN_POINT('',(-0.228295275493,0.149540574048,1.594208369022
));
#116 = CARTESIAN_POINT('',(-0.211177118452,0.172188711667,1.600013059445
));
#117 = CARTESIAN_POINT('',(-0.191314378846,0.19260802922,1.601643734815)
);
#118 = CARTESIAN_POINT('',(-0.148177580045,0.227328343471,1.596684501671
));
#119 = CARTESIAN_POINT('',(-0.125067720607,0.241853665871,1.590428212092
));
#120 = CARTESIAN_POINT('',(-0.100493061799,0.253479833794,1.58034747883)
);
#121 = CARTESIAN_POINT('',(-7.506936362679E-002,0.262023660022,
1.566767397503));
#122 = CARTESIAN_POINT('',(-4.935152810502E-002,0.267522899505,
1.550220318441));
#123 = CARTESIAN_POINT('',(-2.377484121674E-002,0.27012077878,
1.531250506779));
#124 = CARTESIAN_POINT('',(2.999545937523E-002,0.26985507512,
1.486490696415));
#125 = CARTESIAN_POINT('',(5.80474258338E-002,0.26616661908,
1.460115124204));
#126 = CARTESIAN_POINT('',(8.506442503691E-002,0.259198123284,
1.431903626232));
#127 = CARTESIAN_POINT('',(0.110725147649,0.249228040985,1.402468026276)
);
#128 = CARTESIAN_POINT('',(0.13477646488,0.23651456311,1.372328461757));
#129 = CARTESIAN_POINT('',(0.156999624077,0.221283263588,1.34192088656)
);
#130 = CARTESIAN_POINT('',(0.201496242066,0.182586506279,1.27513676238)
);
#131 = CARTESIAN_POINT('',(0.222820015535,0.158094883813,1.238852976682)
);
#132 = CARTESIAN_POINT('',(0.240775576172,0.1306282566,1.203471871383));
#133 = CARTESIAN_POINT('',(0.25494472572,0.10055056695,1.169660156086));
#134 = CARTESIAN_POINT('',(0.264849793694,6.831267020304E-002,
1.138128294543));
#135 = CARTESIAN_POINT('',(0.27,3.45234111584E-002,1.109640187637));
#136 = CARTESIAN_POINT('',(0.27,5.551115123126E-017,1.084966610649));
#137 = SURFACE_OF_REVOLUTION('',#138,#151);
#138 = B_SPLINE_CURVE_WITH_KNOTS('',6,(#139,#140,#141,#142,#143,#144,
#145,#146,#147,#148,#149,#150),.UNSPECIFIED.,.F.,.F.,(7,5,7),(
0.E+000,0.785398163397,1.570796326795),.UNSPECIFIED.);
#139 = CARTESIAN_POINT('',(7.,-1.430487804878,4.53));
#140 = CARTESIAN_POINT('',(7.,-1.066522802328,4.53));
#141 = CARTESIAN_POINT('',(6.942828735349,-0.702558407699,4.53));
#142 = CARTESIAN_POINT('',(6.828484716636,-0.349816002608,4.53));
#143 = CARTESIAN_POINT('',(6.659911601004,-1.9536024936E-002,4.53));
#144 = CARTESIAN_POINT('',(6.442976098375,0.27825185554,4.53));
#145 = CARTESIAN_POINT('',(5.92825185554,0.792976098375,4.53));
#146 = CARTESIAN_POINT('',(5.630463975064,1.009911601004,4.53));
#147 = CARTESIAN_POINT('',(5.300183997392,1.178484716636,4.53));
#148 = CARTESIAN_POINT('',(4.947441592301,1.292828735349,4.53));
#149 = CARTESIAN_POINT('',(4.583477197672,1.35,4.53));
#150 = CARTESIAN_POINT('',(4.219512195122,1.35,4.53));
#151 = AXIS1_PLACEMENT('',#152,#153);
#152 = CARTESIAN_POINT('',(2.5,-1.430487804878,4.53));
#153 = DIRECTION('',(0.E+000,1.,0.E+000));
#154 = ADVANCED_FACE('',(#155,#175),#249,.T.);
#155 = FACE_BOUND('',#156,.T.);
#156 = EDGE_LOOP('',(#157,#158,#167,#174));
#157 = ORIENTED_EDGE('',*,*,#31,.T.);
#158 = ORIENTED_EDGE('',*,*,#159,.T.);
#159 = EDGE_CURVE('',#24,#160,#162,.T.);
#160 = VERTEX_POINT('',#161);
#161 = CARTESIAN_POINT('',(4.219512195122,-4.35,4.53));
#162 = CIRCLE('',#163,2.780487804878);
#163 = AXIS2_PLACEMENT_3D('',#164,#165,#166);
#164 = CARTESIAN_POINT('',(4.219512195122,-1.569512195122,4.53));
#165 = DIRECTION('',(0.E+000,0.E+000,-1.));
#166 = DIRECTION('',(1.,0.E+000,0.E+000));
#167 = ORIENTED_EDGE('',*,*,#168,.F.);
#168 = EDGE_CURVE('',#160,#160,#169,.T.);
#169 = CIRCLE('',#170,1.719512195122);
#170 = AXIS2_PLACEMENT_3D('',#171,#172,#173);
#171 = CARTESIAN_POINT('',(2.5,-4.35,4.53));
#172 = DIRECTION('',(0.E+000,-1.,0.E+000));
#173 = DIRECTION('',(1.,0.E+000,0.E+000));
#174 = ORIENTED_EDGE('',*,*,#159,.F.);
#175 = FACE_BOUND('',#176,.T.);
#176 = EDGE_LOOP('',(#177,#196));
#177 = ORIENTED_EDGE('',*,*,#178,.T.);
#178 = EDGE_CURVE('',#179,#181,#183,.T.);
#179 = VERTEX_POINT('',#180);
#180 = CARTESIAN_POINT('',(5.27,-3.,1.502087343773));
#181 = VERTEX_POINT('',#182);
#182 = CARTESIAN_POINT('',(5.018318747819,-2.730622154812,1.111485272033
));
#183 = B_SPLINE_CURVE_WITH_KNOTS('',6,(#184,#185,#186,#187,#188,#189,
#190,#191,#192,#193,#194,#195),.UNSPECIFIED.,.F.,.F.,(7,5,7),(
0.E+000,0.44861069457,1.),.UNSPECIFIED.);
#184 = CARTESIAN_POINT('',(5.27,-3.,1.502087343773));
#185 = CARTESIAN_POINT('',(5.27,-2.969160479283,1.477010312221));
#186 = CARTESIAN_POINT('',(5.265772967987,-2.938814113814,1.449463095606
));
#187 = CARTESIAN_POINT('',(5.257572573285,-2.909537270389,1.420181093687
));
#188 = CARTESIAN_POINT('',(5.245675216845,-2.881804670353,1.389758889395
));
#189 = CARTESIAN_POINT('',(5.230354907643,-2.856044093196,1.358694717049
));
#190 = CARTESIAN_POINT('',(5.189219641951,-2.803950409195,1.289051036099
));
#191 = CARTESIAN_POINT('',(5.16182047262,-2.778858753795,1.250407596038)
);
#192 = CARTESIAN_POINT('',(5.13024855378,-2.758160249787,1.212371707812)
);
#193 = CARTESIAN_POINT('',(5.095127915966,-2.742674158961,1.175809987212
));
#194 = CARTESIAN_POINT('',(5.057380732182,-2.733278522637,1.141777397196
));
#195 = CARTESIAN_POINT('',(5.018318747819,-2.730622154812,1.111485272033
));
#196 = ORIENTED_EDGE('',*,*,#197,.T.);
#197 = EDGE_CURVE('',#181,#179,#198,.T.);
#198 = B_SPLINE_CURVE_WITH_KNOTS('',7,(#199,#200,#201,#202,#203,#204,
#205,#206,#207,#208,#209,#210,#211,#212,#213,#214,#215,#216,#217,
#218,#219,#220,#221,#222,#223,#224,#225,#226,#227,#228,#229,#230,
#231,#232,#233,#234,#235,#236,#237,#238,#239,#240,#241,#242,#243,
#244,#245,#246,#247,#248),.UNSPECIFIED.,.F.,.F.,(8,6,6,6,6,6,6,6,8),
(0.E+000,0.192139020314,0.302610077884,0.358736384332,0.522408759465,
0.686756788974,0.818833033897,0.925947244809,1.),.UNSPECIFIED.);
#199 = CARTESIAN_POINT('',(5.018318747819,-2.730622154812,1.111485272033
));
#200 = CARTESIAN_POINT('',(4.983019523861,-2.728221669421,1.084111124823
));
#201 = CARTESIAN_POINT('',(4.946632463328,-2.73116866566,1.059672608971)
);
#202 = CARTESIAN_POINT('',(4.910158629531,-2.739929911013,1.039093401787
));
#203 = CARTESIAN_POINT('',(4.874860406178,-2.754739417464,1.023342734118
));
#204 = CARTESIAN_POINT('',(4.842233981397,-2.775397021445,1.013328113756
));
#205 = CARTESIAN_POINT('',(4.81367711531,-2.801017620884,1.009574313222)
);
#206 = CARTESIAN_POINT('',(4.776485884368,-2.8470045293,1.013278515869)
);
#207 = CARTESIAN_POINT('',(4.764531951947,-2.864988755263,1.016650266964
));
#208 = CARTESIAN_POINT('',(4.75436079564,-2.883924005415,1.022019570937)
);
#209 = CARTESIAN_POINT('',(4.74606031571,-2.903543672243,1.029303014626)
);
#210 = CARTESIAN_POINT('',(4.739654861982,-2.923589470115,1.038375506303
));
#211 = CARTESIAN_POINT('',(4.735119827924,-2.943828899556,1.049088703891
));
#212 = CARTESIAN_POINT('',(4.731022134762,-2.974339336525,1.067486131154
));
#213 = CARTESIAN_POINT('',(4.730110778716,-2.984616771526,1.074068145725
));
#214 = CARTESIAN_POINT('',(4.729661638628,-2.994866733889,1.081014153456
));
#215 = CARTESIAN_POINT('',(4.729666015069,-3.005065177214,1.088303776166
));
#216 = CARTESIAN_POINT('',(4.730113903951,-3.015189993417,1.095916536173
));
#217 = CARTESIAN_POINT('',(4.73099445895,-3.025220992743,1.10383216865)
);
#218 = CARTESIAN_POINT('',(4.736093258471,-3.064064795433,1.135939711903
));
#219 = CARTESIAN_POINT('',(4.743472630405,-3.092026209304,1.162247815265
));
#220 = CARTESIAN_POINT('',(4.754152738526,-3.118584496261,1.190473431025
));
#221 = CARTESIAN_POINT('',(4.767829276562,-3.143398715493,1.220149862752
));
#222 = CARTESIAN_POINT('',(4.784211808498,-3.166197657187,1.250834405918
));
#223 = CARTESIAN_POINT('',(4.803037770449,-3.186746433289,1.282097915748
));
#224 = CARTESIAN_POINT('',(4.845177286486,-3.222945361755,1.345021829777
));
#225 = CARTESIAN_POINT('',(4.868491895314,-3.238560345073,1.376657925085
));
#226 = CARTESIAN_POINT('',(4.893766307334,-3.251429900375,1.407966399331
));
#227 = CARTESIAN_POINT('',(4.920754746849,-3.261297821424,1.438453194735
));
#228 = CARTESIAN_POINT('',(4.949166368024,-3.267867332906,1.467519100299
));
#229 = CARTESIAN_POINT('',(4.978623115432,-3.270820129033,1.494454304008
));
#230 = CARTESIAN_POINT('',(5.03272010731,-3.269092876453,1.537779919257)
);
#231 = CARTESIAN_POINT('',(5.05716560163,-3.265798110639,1.555198843087)
);
#232 = CARTESIAN_POINT('',(5.081646059614,-3.259829250562,1.570293738335
));
#233 = CARTESIAN_POINT('',(5.105764146639,-3.251078692916,1.58259374887)
);
#234 = CARTESIAN_POINT('',(5.129028600813,-3.239536905233,1.591655702991
));
#235 = CARTESIAN_POINT('',(5.150905223225,-3.22538247441,1.597218415854)
);
#236 = CARTESIAN_POINT('',(5.187181547423,-3.195712829794,1.600972910788
));
#237 = CARTESIAN_POINT('',(5.202225057285,-3.180950569842,1.600360489025
));
#238 = CARTESIAN_POINT('',(5.215826736412,-3.164906667866,1.597452836217
));
#239 = CARTESIAN_POINT('',(5.227823818244,-3.147822021298,1.592366967969
));
#240 = CARTESIAN_POINT('',(5.238128680408,-3.129944492962,1.585289786119
));
#241 = CARTESIAN_POINT('',(5.24671460319,-3.111502922728,1.576436064675)
);
#242 = CARTESIAN_POINT('',(5.258342353245,-3.079692456917,1.558807117403
));
#243 = CARTESIAN_POINT('',(5.262277861483,-3.06651359914,1.550850510588)
);
#244 = CARTESIAN_POINT('',(5.265399442397,-3.053221749981,1.542210747127
));
#245 = CARTESIAN_POINT('',(5.267716979325,-3.03987474899,1.532953923372)
);
#246 = CARTESIAN_POINT('',(5.26924485108,-3.026525034491,1.523143116754)
);
#247 = CARTESIAN_POINT('',(5.27,-3.013219608223,1.512836814738));
#248 = CARTESIAN_POINT('',(5.27,-3.,1.502087343773));
#249 = SURFACE_OF_REVOLUTION('',#250,#263);
#250 = B_SPLINE_CURVE_WITH_KNOTS('',6,(#251,#252,#253,#254,#255,#256,
#257,#258,#259,#260,#261,#262),.UNSPECIFIED.,.F.,.F.,(7,5,7),(
0.E+000,0.785398163397,1.570796326795),.UNSPECIFIED.);
#251 = CARTESIAN_POINT('',(7.,-1.569512195122,4.53));
#252 = CARTESIAN_POINT('',(7.,-1.933477197672,4.53));
#253 = CARTESIAN_POINT('',(6.942828735349,-2.297441592301,4.53));
#254 = CARTESIAN_POINT('',(6.828484716636,-2.650183997392,4.53));
#255 = CARTESIAN_POINT('',(6.659911601004,-2.980463975064,4.53));
#256 = CARTESIAN_POINT('',(6.442976098375,-3.27825185554,4.53));
#257 = CARTESIAN_POINT('',(5.92825185554,-3.792976098375,4.53));
#258 = CARTESIAN_POINT('',(5.630463975064,-4.009911601004,4.53));
#259 = CARTESIAN_POINT('',(5.300183997392,-4.178484716636,4.53));
#260 = CARTESIAN_POINT('',(4.947441592301,-4.292828735349,4.53));
#261 = CARTESIAN_POINT('',(4.583477197672,-4.35,4.53));
#262 = CARTESIAN_POINT('',(4.219512195122,-4.35,4.53));
#263 = AXIS1_PLACEMENT('',#264,#265);
#264 = CARTESIAN_POINT('',(2.5,-1.569512195122,4.53));
#265 = DIRECTION('',(0.E+000,-1.,0.E+000));
#266 = ADVANCED_FACE('',(#267),#270,.F.);
#267 = FACE_BOUND('',#268,.F.);
#268 = EDGE_LOOP('',(#269));
#269 = ORIENTED_EDGE('',*,*,#64,.T.);
#270 = PLANE('',#271);
#271 = AXIS2_PLACEMENT_3D('',#272,#273,#274);
#272 = CARTESIAN_POINT('',(2.5,1.35,4.53));
#273 = DIRECTION('',(-0.E+000,-1.,-0.E+000));
#274 = DIRECTION('',(0.E+000,0.E+000,-1.));
#275 = ADVANCED_FACE('',(#276),#296,.T.);
#276 = FACE_BOUND('',#277,.T.);
#277 = EDGE_LOOP('',(#278,#279,#287,#294,#295));
#278 = ORIENTED_EDGE('',*,*,#97,.T.);
#279 = ORIENTED_EDGE('',*,*,#280,.T.);
#280 = EDGE_CURVE('',#75,#281,#283,.T.);
#281 = VERTEX_POINT('',#282);
#282 = CARTESIAN_POINT('',(0.27,0.E+000,-2.892));
#283 = LINE('',#284,#285);
#284 = CARTESIAN_POINT('',(0.27,0.E+000,4.53));
#285 = VECTOR('',#286,1.);
#286 = DIRECTION('',(-0.E+000,-0.E+000,-1.));
#287 = ORIENTED_EDGE('',*,*,#288,.T.);
#288 = EDGE_CURVE('',#281,#281,#289,.T.);
#289 = CIRCLE('',#290,0.27);
#290 = AXIS2_PLACEMENT_3D('',#291,#292,#293);
#291 = CARTESIAN_POINT('',(0.E+000,0.E+000,-2.892));
#292 = DIRECTION('',(0.E+000,0.E+000,1.));
#293 = DIRECTION('',(1.,0.E+000,0.E+000));
#294 = ORIENTED_EDGE('',*,*,#280,.F.);
#295 = ORIENTED_EDGE('',*,*,#74,.T.);
#296 = CYLINDRICAL_SURFACE('',#297,0.27);
#297 = AXIS2_PLACEMENT_3D('',#298,#299,#300);
#298 = CARTESIAN_POINT('',(0.E+000,0.E+000,4.53));
#299 = DIRECTION('',(0.E+000,0.E+000,1.));
#300 = DIRECTION('',(1.,0.E+000,0.E+000));
#301 = ADVANCED_FACE('',(#302),#305,.T.);
#302 = FACE_BOUND('',#303,.T.);
#303 = EDGE_LOOP('',(#304));
#304 = ORIENTED_EDGE('',*,*,#168,.T.);
#305 = PLANE('',#306);
#306 = AXIS2_PLACEMENT_3D('',#307,#308,#309);
#307 = CARTESIAN_POINT('',(2.5,-4.35,4.53));
#308 = DIRECTION('',(-0.E+000,-1.,-0.E+000));
#309 = DIRECTION('',(0.E+000,0.E+000,-1.));
#310 = ADVANCED_FACE('',(#311),#331,.T.);
#311 = FACE_BOUND('',#312,.T.);
#312 = EDGE_LOOP('',(#313,#314,#322,#329,#330));
#313 = ORIENTED_EDGE('',*,*,#178,.F.);
#314 = ORIENTED_EDGE('',*,*,#315,.T.);
#315 = EDGE_CURVE('',#179,#316,#318,.T.);
#316 = VERTEX_POINT('',#317);
#317 = CARTESIAN_POINT('',(5.27,-3.,-2.892));
#318 = LINE('',#319,#320);
#319 = CARTESIAN_POINT('',(5.27,-3.,4.53));
#320 = VECTOR('',#321,1.);
#321 = DIRECTION('',(-0.E+000,-0.E+000,-1.));
#322 = ORIENTED_EDGE('',*,*,#323,.T.);
#323 = EDGE_CURVE('',#316,#316,#324,.T.);
#324 = CIRCLE('',#325,0.27);
#325 = AXIS2_PLACEMENT_3D('',#326,#327,#328);
#326 = CARTESIAN_POINT('',(5.,-3.,-2.892));
#327 = DIRECTION('',(-2.028963233593E-029,6.763210778644E-030,1.));
#328 = DIRECTION('',(1.,2.705284311457E-030,2.028963233593E-029));
#329 = ORIENTED_EDGE('',*,*,#315,.F.);
#330 = ORIENTED_EDGE('',*,*,#197,.F.);
#331 = CYLINDRICAL_SURFACE('',#332,0.27);
#332 = AXIS2_PLACEMENT_3D('',#333,#334,#335);
#333 = CARTESIAN_POINT('',(5.,-3.,4.53));
#334 = DIRECTION('',(0.E+000,0.E+000,1.));
#335 = DIRECTION('',(1.,0.E+000,0.E+000));
#336 = ADVANCED_FACE('',(#337),#357,.T.);
#337 = FACE_BOUND('',#338,.F.);
#338 = EDGE_LOOP('',(#339,#348,#349,#350));
#339 = ORIENTED_EDGE('',*,*,#340,.F.);
#340 = EDGE_CURVE('',#281,#341,#343,.T.);
#341 = VERTEX_POINT('',#342);
#342 = CARTESIAN_POINT('',(0.162,0.E+000,-3.));
#343 = CIRCLE('',#344,0.108);
#344 = AXIS2_PLACEMENT_3D('',#345,#346,#347);
#345 = CARTESIAN_POINT('',(0.162,0.E+000,-2.892));
#346 = DIRECTION('',(-0.E+000,1.,0.E+000));
#347 = DIRECTION('',(1.,0.E+000,0.E+000));
#348 = ORIENTED_EDGE('',*,*,#288,.T.);
#349 = ORIENTED_EDGE('',*,*,#340,.T.);
#350 = ORIENTED_EDGE('',*,*,#351,.F.);
#351 = EDGE_CURVE('',#341,#341,#352,.T.);
#352 = CIRCLE('',#353,0.162);
#353 = AXIS2_PLACEMENT_3D('',#354,#355,#356);
#354 = CARTESIAN_POINT('',(0.E+000,0.E+000,-3.));
#355 = DIRECTION('',(0.E+000,0.E+000,1.));
#356 = DIRECTION('',(1.,0.E+000,0.E+000));
#357 = TOROIDAL_SURFACE('',#358,0.162,0.108);
#358 = AXIS2_PLACEMENT_3D('',#359,#360,#361);
#359 = CARTESIAN_POINT('',(0.E+000,0.E+000,-2.892));
#360 = DIRECTION('',(-0.E+000,-0.E+000,-1.));
#361 = DIRECTION('',(1.,0.E+000,0.E+000));
#362 = ADVANCED_FACE('',(#363),#383,.T.);
#363 = FACE_BOUND('',#364,.F.);
#364 = EDGE_LOOP('',(#365,#374,#375,#376));
#365 = ORIENTED_EDGE('',*,*,#366,.F.);
#366 = EDGE_CURVE('',#316,#367,#369,.T.);
#367 = VERTEX_POINT('',#368);
#368 = CARTESIAN_POINT('',(5.162,-3.,-3.));
#369 = CIRCLE('',#370,0.108);
#370 = AXIS2_PLACEMENT_3D('',#371,#372,#373);
#371 = CARTESIAN_POINT('',(5.162,-3.,-2.892));
#372 = DIRECTION('',(-2.705284311457E-030,1.,-6.763210778644E-030));
#373 = DIRECTION('',(1.,2.705284311457E-030,2.028963233593E-029));
#374 = ORIENTED_EDGE('',*,*,#323,.T.);
#375 = ORIENTED_EDGE('',*,*,#366,.T.);
#376 = ORIENTED_EDGE('',*,*,#377,.F.);
#377 = EDGE_CURVE('',#367,#367,#378,.T.);
#378 = CIRCLE('',#379,0.162);
#379 = AXIS2_PLACEMENT_3D('',#380,#381,#382);
#380 = CARTESIAN_POINT('',(5.,-3.,-3.));
#381 = DIRECTION('',(-2.028963233593E-029,6.763210778644E-030,1.));
#382 = DIRECTION('',(1.,2.705284311457E-030,2.028963233593E-029));
#383 = TOROIDAL_SURFACE('',#384,0.162,0.108);
#384 = AXIS2_PLACEMENT_3D('',#385,#386,#387);
#385 = CARTESIAN_POINT('',(5.,-3.,-2.892));
#386 = DIRECTION('',(2.028963233593E-029,-6.763210778644E-030,-1.));
#387 = DIRECTION('',(1.,2.705284311457E-030,2.028963233593E-029));
#388 = ADVANCED_FACE('',(#389),#392,.F.);
#389 = FACE_BOUND('',#390,.F.);
#390 = EDGE_LOOP('',(#391));
#391 = ORIENTED_EDGE('',*,*,#351,.T.);
#392 = PLANE('',#393);
#393 = AXIS2_PLACEMENT_3D('',#394,#395,#396);
#394 = CARTESIAN_POINT('',(-1.978356673234E-017,2.854531227236E-017,-3.)
);
#395 = DIRECTION('',(0.E+000,0.E+000,1.));
#396 = DIRECTION('',(1.,0.E+000,0.E+000));
#397 = ADVANCED_FACE('',(#398),#401,.F.);
#398 = FACE_BOUND('',#399,.F.);
#399 = EDGE_LOOP('',(#400));
#400 = ORIENTED_EDGE('',*,*,#377,.T.);
#401 = PLANE('',#402);
#402 = AXIS2_PLACEMENT_3D('',#403,#404,#405);
#403 = CARTESIAN_POINT('',(5.,-3.,-3.));
#404 = DIRECTION('',(-2.028963233593E-029,6.763210778644E-030,1.));
#405 = DIRECTION('',(1.,0.E+000,2.028963233593E-029));
#406 = ( GEOMETRIC_REPRESENTATION_CONTEXT(3)
GLOBAL_UNCERTAINTY_ASSIGNED_CONTEXT((#410)) GLOBAL_UNIT_ASSIGNED_CONTEXT
((#407,#408,#409)) REPRESENTATION_CONTEXT('Context #1',
'3D Context with UNIT and UNCERTAINTY') );
#407 = ( LENGTH_UNIT() NAMED_UNIT(*) SI_UNIT(.MILLI.,.METRE.) );
#408 = ( NAMED_UNIT(*) PLANE_ANGLE_UNIT() SI_UNIT($,.RADIAN.) );
#409 = ( NAMED_UNIT(*) SI_UNIT($,.STERADIAN.) SOLID_ANGLE_UNIT() );
#410 = UNCERTAINTY_MEASURE_WITH_UNIT(LENGTH_MEASURE(1.E-007),#407,
'distance_accuracy_value','confusion accuracy');
#411 = PRODUCT_RELATED_PRODUCT_CATEGORY('part',$,(#7));
#412 = MECHANICAL_DESIGN_GEOMETRIC_PRESENTATION_REPRESENTATION('',(#413,
#421,#428,#435,#442,#450,#457,#464,#471,#478,#485),#406);
#413 = STYLED_ITEM('color',(#414),#17);
#414 = PRESENTATION_STYLE_ASSIGNMENT((#415));
#415 = SURFACE_STYLE_USAGE(.BOTH.,#416);
#416 = SURFACE_SIDE_STYLE('',(#417));
#417 = SURFACE_STYLE_FILL_AREA(#418);
#418 = FILL_AREA_STYLE('',(#419));
#419 = FILL_AREA_STYLE_COLOUR('',#420);
#420 = COLOUR_RGB('',0.136999994516,0.402000010014,0.726999998093);
#421 = STYLED_ITEM('color',(#422),#50);
#422 = PRESENTATION_STYLE_ASSIGNMENT((#423));
#423 = SURFACE_STYLE_USAGE(.BOTH.,#424);
#424 = SURFACE_SIDE_STYLE('',(#425));
#425 = SURFACE_STYLE_FILL_AREA(#426);
#426 = FILL_AREA_STYLE('',(#427));
#427 = FILL_AREA_STYLE_COLOUR('',#420);
#428 = STYLED_ITEM('color',(#429),#154);
#429 = PRESENTATION_STYLE_ASSIGNMENT((#430));
#430 = SURFACE_STYLE_USAGE(.BOTH.,#431);
#431 = SURFACE_SIDE_STYLE('',(#432));
#432 = SURFACE_STYLE_FILL_AREA(#433);
#433 = FILL_AREA_STYLE('',(#434));
#434 = FILL_AREA_STYLE_COLOUR('',#420);
#435 = STYLED_ITEM('color',(#436),#266);
#436 = PRESENTATION_STYLE_ASSIGNMENT((#437));
#437 = SURFACE_STYLE_USAGE(.BOTH.,#438);
#438 = SURFACE_SIDE_STYLE('',(#439));
#439 = SURFACE_STYLE_FILL_AREA(#440);
#440 = FILL_AREA_STYLE('',(#441));
#441 = FILL_AREA_STYLE_COLOUR('',#420);
#442 = STYLED_ITEM('color',(#443),#275);
#443 = PRESENTATION_STYLE_ASSIGNMENT((#444));
#444 = SURFACE_STYLE_USAGE(.BOTH.,#445);
#445 = SURFACE_SIDE_STYLE('',(#446));
#446 = SURFACE_STYLE_FILL_AREA(#447);
#447 = FILL_AREA_STYLE('',(#448));
#448 = FILL_AREA_STYLE_COLOUR('',#449);
#449 = COLOUR_RGB('',0.824000000954,0.819999992847,0.78100001812);
#450 = STYLED_ITEM('color',(#451),#301);
#451 = PRESENTATION_STYLE_ASSIGNMENT((#452));
#452 = SURFACE_STYLE_USAGE(.BOTH.,#453);
#453 = SURFACE_SIDE_STYLE('',(#454));
#454 = SURFACE_STYLE_FILL_AREA(#455);
#455 = FILL_AREA_STYLE('',(#456));
#456 = FILL_AREA_STYLE_COLOUR('',#420);
#457 = STYLED_ITEM('color',(#458),#310);
#458 = PRESENTATION_STYLE_ASSIGNMENT((#459));
#459 = SURFACE_STYLE_USAGE(.BOTH.,#460);
#460 = SURFACE_SIDE_STYLE('',(#461));
#461 = SURFACE_STYLE_FILL_AREA(#462);
#462 = FILL_AREA_STYLE('',(#463));
#463 = FILL_AREA_STYLE_COLOUR('',#449);
#464 = STYLED_ITEM('color',(#465),#336);
#465 = PRESENTATION_STYLE_ASSIGNMENT((#466));
#466 = SURFACE_STYLE_USAGE(.BOTH.,#467);
#467 = SURFACE_SIDE_STYLE('',(#468));
#468 = SURFACE_STYLE_FILL_AREA(#469);
#469 = FILL_AREA_STYLE('',(#470));
#470 = FILL_AREA_STYLE_COLOUR('',#449);
#471 = STYLED_ITEM('color',(#472),#362);
#472 = PRESENTATION_STYLE_ASSIGNMENT((#473));
#473 = SURFACE_STYLE_USAGE(.BOTH.,#474);
#474 = SURFACE_SIDE_STYLE('',(#475));
#475 = SURFACE_STYLE_FILL_AREA(#476);
#476 = FILL_AREA_STYLE('',(#477));
#477 = FILL_AREA_STYLE_COLOUR('',#449);
#478 = STYLED_ITEM('color',(#479),#388);
#479 = PRESENTATION_STYLE_ASSIGNMENT((#480));
#480 = SURFACE_STYLE_USAGE(.BOTH.,#481);
#481 = SURFACE_SIDE_STYLE('',(#482));
#482 = SURFACE_STYLE_FILL_AREA(#483);
#483 = FILL_AREA_STYLE('',(#484));
#484 = FILL_AREA_STYLE_COLOUR('',#449);
#485 = STYLED_ITEM('color',(#486),#397);
#486 = PRESENTATION_STYLE_ASSIGNMENT((#487));
#487 = SURFACE_STYLE_USAGE(.BOTH.,#488);
#488 = SURFACE_SIDE_STYLE('',(#489));
#489 = SURFACE_STYLE_FILL_AREA(#490);
#490 = FILL_AREA_STYLE('',(#491));
#491 = FILL_AREA_STYLE_COLOUR('',#449);
ENDSEC;
END-ISO-10303-21;
