ISO-10303-21;
HEADER;
/* RV_Disc_D21.5mm_W5mm_P10mm.step 3D STEP model for use in ECAD systems
 * Copyright (C) 2018, kicad StepUp
 * 
 * This work is licensed under the [Creative Commons CC-BY-SA 4.0 License](https://creativecommons.org/licenses/by-sa/4.0/legalcode), 
 * with the following exception:
 * To the extent that the creation of electronic designs that use 'Licensed Material' can be considered to be 'Adapted Material', 
 * then the copyright holder waives article 3 of the license with respect to these designs and any generated files which use data provided 
 * as part of the 'Licensed Material'.
 * You are free to use the library data in your own projects without the obligation to share your project files under this or any other license agreement.
 * However, if you wish to redistribute these libraries, or parts thereof (including in modified form) as a collection then the exception above does not apply. 
 * Please refer to https://github.com/KiCad/kicad-packages3D/blob/master/LICENSE.md for further clarification of the exception.
 * Disclaimer of Warranties and Limitation of Liability.
 * These libraries are provided in the hope that they will be useful, but are provided without warranty of any kind, express or implied.
 * *USE 3D CAD DATA AT YOUR OWN RISK*
 * *DO NOT RELY UPON ANY INFORMATION FOUND HERE WITHOUT INDEPENDENT VERIFICATION.*
 * 
 */

FILE_DESCRIPTION(
/* description */ ('model of RV_Disc_D21.5mm_W5mm_P10mm'),
/* implementation_level */ '2;1');

FILE_NAME(
/* name */ 'RV_Disc_D21.5mm_W5mm_P10mm.step',
/* time_stamp */ '2018-11-11T21:04:29',
/* author */ ('kicad StepUp','ksu'),
/* organization */ ('FreeCAD'),
/* preprocessor_version */ 'OCC',
/* originating_system */ 'kicad StepUp',
/* authorisation */ '');

FILE_SCHEMA(('AUTOMOTIVE_DESIGN { 1 0 10303 214 1 1 1 1 }'));
ENDSEC;

DATA;
#1 = APPLICATION_PROTOCOL_DEFINITION('international standard',
'automotive_design',2000,#2);
#2 = APPLICATION_CONTEXT(
'core data for automotive mechanical design processes');
#3 = SHAPE_DEFINITION_REPRESENTATION(#4,#10);
#4 = PRODUCT_DEFINITION_SHAPE('','',#5);
#5 = PRODUCT_DEFINITION('design','',#6,#9);
#6 = PRODUCT_DEFINITION_FORMATION('','',#7);
#7 = PRODUCT('RV_Disc_D215mm_W5mm_P10mm','RV_Disc_D215mm_W5mm_P10mm','',
(#8));
#8 = PRODUCT_CONTEXT('',#2,'mechanical');
#9 = PRODUCT_DEFINITION_CONTEXT('part definition',#2,'design');
#10 = ADVANCED_BREP_SHAPE_REPRESENTATION('',(#11,#15),#414);
#11 = AXIS2_PLACEMENT_3D('',#12,#13,#14);
#12 = CARTESIAN_POINT('',(0.E+000,0.E+000,0.E+000));
#13 = DIRECTION('',(0.E+000,0.E+000,1.));
#14 = DIRECTION('',(1.,0.E+000,-0.E+000));
#15 = MANIFOLD_SOLID_BREP('',#16);
#16 = CLOSED_SHELL('',(#17,#50,#155,#274,#283,#309,#318,#344,#370,#396,
#405));
#17 = ADVANCED_FACE('',(#18),#45,.T.);
#18 = FACE_BOUND('',#19,.F.);
#19 = EDGE_LOOP('',(#20,#30,#37,#38));
#20 = ORIENTED_EDGE('',*,*,#21,.T.);
#21 = EDGE_CURVE('',#22,#24,#26,.T.);
#22 = VERTEX_POINT('',#23);
#23 = CARTESIAN_POINT('',(15.75,-1.089024390244,10.78));
#24 = VERTEX_POINT('',#25);
#25 = CARTESIAN_POINT('',(15.75,-1.210975609756,10.78));
#26 = LINE('',#27,#28);
#27 = CARTESIAN_POINT('',(15.75,1.35,10.78));
#28 = VECTOR('',#29,1.);
#29 = DIRECTION('',(0.E+000,-1.,0.E+000));
#30 = ORIENTED_EDGE('',*,*,#31,.T.);
#31 = EDGE_CURVE('',#24,#24,#32,.T.);
#32 = CIRCLE('',#33,10.75);
#33 = AXIS2_PLACEMENT_3D('',#34,#35,#36);
#34 = CARTESIAN_POINT('',(5.,-1.210975609756,10.78));
#35 = DIRECTION('',(0.E+000,-1.,0.E+000));
#36 = DIRECTION('',(1.,0.E+000,0.E+000));
#37 = ORIENTED_EDGE('',*,*,#21,.F.);
#38 = ORIENTED_EDGE('',*,*,#39,.F.);
#39 = EDGE_CURVE('',#22,#22,#40,.T.);
#40 = CIRCLE('',#41,10.75);
#41 = AXIS2_PLACEMENT_3D('',#42,#43,#44);
#42 = CARTESIAN_POINT('',(5.,-1.089024390244,10.78));
#43 = DIRECTION('',(0.E+000,-1.,0.E+000));
#44 = DIRECTION('',(1.,0.E+000,0.E+000));
#45 = CYLINDRICAL_SURFACE('',#46,10.75);
#46 = AXIS2_PLACEMENT_3D('',#47,#48,#49);
#47 = CARTESIAN_POINT('',(5.,1.35,10.78));
#48 = DIRECTION('',(0.E+000,1.,0.E+000));
#49 = DIRECTION('',(1.,0.E+000,0.E+000));
#50 = ADVANCED_FACE('',(#51,#71),#150,.T.);
#51 = FACE_BOUND('',#52,.F.);
#52 = EDGE_LOOP('',(#53,#54,#63,#70));
#53 = ORIENTED_EDGE('',*,*,#39,.T.);
#54 = ORIENTED_EDGE('',*,*,#55,.T.);
#55 = EDGE_CURVE('',#22,#56,#58,.T.);
#56 = VERTEX_POINT('',#57);
#57 = CARTESIAN_POINT('',(13.310975609756,1.35,10.78));
#58 = CIRCLE('',#59,2.439024390244);
#59 = AXIS2_PLACEMENT_3D('',#60,#61,#62);
#60 = CARTESIAN_POINT('',(13.310975609756,-1.089024390244,10.78));
#61 = DIRECTION('',(0.E+000,0.E+000,1.));
#62 = DIRECTION('',(1.,0.E+000,0.E+000));
#63 = ORIENTED_EDGE('',*,*,#64,.F.);
#64 = EDGE_CURVE('',#56,#56,#65,.T.);
#65 = CIRCLE('',#66,8.310975609756);
#66 = AXIS2_PLACEMENT_3D('',#67,#68,#69);
#67 = CARTESIAN_POINT('',(5.,1.35,10.78));
#68 = DIRECTION('',(0.E+000,-1.,0.E+000));
#69 = DIRECTION('',(1.,0.E+000,0.E+000));
#70 = ORIENTED_EDGE('',*,*,#55,.F.);
#71 = FACE_BOUND('',#72,.F.);
#72 = EDGE_LOOP('',(#73,#103));
#73 = ORIENTED_EDGE('',*,*,#74,.T.);
#74 = EDGE_CURVE('',#75,#77,#79,.T.);
#75 = VERTEX_POINT('',#76);
#76 = CARTESIAN_POINT('',(0.45,0.E+000,1.324397803153));
#77 = VERTEX_POINT('',#78);
#78 = CARTESIAN_POINT('',(-0.29155190708,-0.342779062193,1.557153210104)
);
#79 = B_SPLINE_CURVE_WITH_KNOTS('',8,(#80,#81,#82,#83,#84,#85,#86,#87,
#88,#89,#90,#91,#92,#93,#94,#95,#96,#97,#98,#99,#100,#101,#102),
.UNSPECIFIED.,.F.,.F.,(9,7,7,9),(0.E+000,0.251267197742,0.455610864973
,1.),.UNSPECIFIED.);
#80 = CARTESIAN_POINT('',(0.45,-5.551115123126E-017,1.324397803153));
#81 = CARTESIAN_POINT('',(0.45,-2.982952632928E-002,1.307879106515));
#82 = CARTESIAN_POINT('',(0.447740140214,-6.002223423978E-002,
1.292898844086));
#83 = CARTESIAN_POINT('',(0.443124353605,-9.038872243232E-002,
1.279609551764));
#84 = CARTESIAN_POINT('',(0.436071069847,-0.120710176669,1.268154880268)
);
#85 = CARTESIAN_POINT('',(0.426524907404,-0.150736765102,1.258660269658)
);
#86 = CARTESIAN_POINT('',(0.414468788972,-0.180191463357,1.251223601895)
);
#87 = CARTESIAN_POINT('',(0.399936480274,-0.208779309364,1.245905831446)
);
#88 = CARTESIAN_POINT('',(0.369272698344,-0.258503730132,1.240132004919)
);
#89 = CARTESIAN_POINT('',(0.353943563545,-0.280039958022,1.238952917714)
);
#90 = CARTESIAN_POINT('',(0.337089022541,-0.300649862336,1.239193500194)
);
#91 = CARTESIAN_POINT('',(0.31878150448,-0.320181581921,1.240841628812)
);
#92 = CARTESIAN_POINT('',(0.299112685397,-0.3384944104,1.243866828886));
#93 = CARTESIAN_POINT('',(0.278191180669,-0.355460902825,1.248223214894)
);
#94 = CARTESIAN_POINT('',(0.25614023747,-0.370968982332,1.253852430777)
);
#95 = CARTESIAN_POINT('',(0.171702067277,-0.422101540869,1.278893379826)
);
#96 = CARTESIAN_POINT('',(0.102347507834,-0.448806064868,1.305920568018)
);
#97 = CARTESIAN_POINT('',(2.837455147485E-002,-0.461975899481,
1.340591529202));
#98 = CARTESIAN_POINT('',(-4.606343682162E-002,-0.46086960084,
1.380427001689));
#99 = CARTESIAN_POINT('',(-0.117403419588,-0.446463381204,1.423318554227
));
#100 = CARTESIAN_POINT('',(-0.183038865432,-0.420618172805,
1.467728793765));
#101 = CARTESIAN_POINT('',(-0.241393078838,-0.385441825599,
1.512567884207));
#102 = CARTESIAN_POINT('',(-0.29155190708,-0.342779062193,1.557153210104
));
#103 = ORIENTED_EDGE('',*,*,#104,.T.);
#104 = EDGE_CURVE('',#77,#75,#105,.T.);
#105 = B_SPLINE_CURVE_WITH_KNOTS('',7,(#106,#107,#108,#109,#110,#111,
#112,#113,#114,#115,#116,#117,#118,#119,#120,#121,#122,#123,#124,
#125,#126,#127,#128,#129,#130,#131,#132,#133,#134,#135,#136,#137,
#138,#139,#140,#141,#142,#143,#144,#145,#146,#147,#148,#149),
.UNSPECIFIED.,.F.,.F.,(8,6,6,6,6,6,6,8),(0.E+000,9.898703954665E-002,
0.362026022517,0.415988621274,0.504528337252,0.635118846086,
0.792764597011,1.),.UNSPECIFIED.);
#106 = CARTESIAN_POINT('',(-0.29155190708,-0.342779062193,1.557153210104
));
#107 = CARTESIAN_POINT('',(-0.311018216683,-0.326221925791,
1.574456480297));
#108 = CARTESIAN_POINT('',(-0.329266000563,-0.308478429498,
1.591757591397));
#109 = CARTESIAN_POINT('',(-0.346233570292,-0.2896510143,1.609018031334)
);
#110 = CARTESIAN_POINT('',(-0.361867248495,-0.269841279518,
1.626202949454));
#111 = CARTESIAN_POINT('',(-0.376120381864,-0.249149834016,
1.643279485295));
#112 = CARTESIAN_POINT('',(-0.388952354168,-0.227676147414,
1.660215097365));
#113 = CARTESIAN_POINT('',(-0.430555121101,-0.146638460746,
1.721514473692));
#114 = CARTESIAN_POINT('',(-0.450453389015,-8.30110772209E-002,
1.764755570589));
#115 = CARTESIAN_POINT('',(-0.459467237022,-1.639032073891E-002,
1.80615908591));
#116 = CARTESIAN_POINT('',(-0.457102236565,5.14791279791E-002,
1.845001618444));
#117 = CARTESIAN_POINT('',(-0.443007469683,0.118657068367,1.880211345811
));
#118 = CARTESIAN_POINT('',(-0.417026666702,0.183031770047,1.91010797783)
);
#119 = CARTESIAN_POINT('',(-0.371584165273,0.25422811172,1.936749002976)
);
#120 = CARTESIAN_POINT('',(-0.36335828611,0.266119715122,1.940954295898)
);
#121 = CARTESIAN_POINT('',(-0.354645500171,0.277760175948,1.944808296816
));
#122 = CARTESIAN_POINT('',(-0.345450837829,0.289124989976,1.948288018744
));
#123 = CARTESIAN_POINT('',(-0.335781381107,0.300188585021,1.951369534299
));
#124 = CARTESIAN_POINT('',(-0.32564666353,0.31092463408,1.954028490294)
);
#125 = CARTESIAN_POINT('',(-0.297687361657,0.338340311171,1.959870201834
));
#126 = CARTESIAN_POINT('',(-0.279095420084,0.354421530014,1.962296984048
));
#127 = CARTESIAN_POINT('',(-0.259339180408,0.369429864477,1.963414137794
));
#128 = CARTESIAN_POINT('',(-0.238499163187,0.383240884772,1.963115156819
));
#129 = CARTESIAN_POINT('',(-0.216681892107,0.395735102734,1.96130780452)
);
#130 = CARTESIAN_POINT('',(-0.194021311708,0.406807182712,1.957928058656
));
#131 = CARTESIAN_POINT('',(-0.136253541824,0.430487305682,1.945617715279
));
#132 = CARTESIAN_POINT('',(-0.10028548149,0.441352598016,1.93480085436)
);
#133 = CARTESIAN_POINT('',(-6.336553677026E-002,0.448655218108,
1.920429175524));
#134 = CARTESIAN_POINT('',(-2.616409457488E-002,0.452270808793,
1.902666714206));
#135 = CARTESIAN_POINT('',(1.063917540594E-002,0.452277076411,
1.881948697237));
#136 = CARTESIAN_POINT('',(4.640928927424E-002,0.448946963677,
1.858938625482));
#137 = CARTESIAN_POINT('',(0.121857204239,0.435212638707,1.804798702781)
);
#138 = CARTESIAN_POINT('',(0.161049776128,0.423441994221,1.772801735478)
);
#139 = CARTESIAN_POINT('',(0.197900939852,0.407970463529,1.739198124578)
);
#140 = CARTESIAN_POINT('',(0.232267824635,0.389251859683,1.704651516836)
);
#141 = CARTESIAN_POINT('',(0.264068893426,0.367641545828,1.669693061807)
);
#142 = CARTESIAN_POINT('',(0.293235884146,0.343401769982,1.634735601043)
);
#143 = CARTESIAN_POINT('',(0.354448399322,0.281614064055,1.554612677733)
);
#144 = CARTESIAN_POINT('',(0.384456621753,0.242335958143,1.509769423119)
);
#145 = CARTESIAN_POINT('',(0.409484361549,0.199337387896,1.466416376577)
);
#146 = CARTESIAN_POINT('',(0.429135168364,0.15301067418,1.425344958164)
);
#147 = CARTESIAN_POINT('',(0.442852907534,0.103835456217,1.387399741));
#148 = CARTESIAN_POINT('',(0.45,5.250232876722E-002,1.353472017477));
#149 = CARTESIAN_POINT('',(0.45,-5.551115123126E-017,1.324397803153));
#150 = TOROIDAL_SURFACE('',#151,8.310975609756,2.439024390244);
#151 = AXIS2_PLACEMENT_3D('',#152,#153,#154);
#152 = CARTESIAN_POINT('',(5.,-1.089024390244,10.78));
#153 = DIRECTION('',(0.E+000,1.,0.E+000));
#154 = DIRECTION('',(1.,0.E+000,0.E+000));
#155 = ADVANCED_FACE('',(#156,#176),#269,.T.);
#156 = FACE_BOUND('',#157,.T.);
#157 = EDGE_LOOP('',(#158,#159,#168,#175));
#158 = ORIENTED_EDGE('',*,*,#31,.T.);
#159 = ORIENTED_EDGE('',*,*,#160,.T.);
#160 = EDGE_CURVE('',#24,#161,#163,.T.);
#161 = VERTEX_POINT('',#162);
#162 = CARTESIAN_POINT('',(13.310975609756,-3.65,10.78));
#163 = CIRCLE('',#164,2.439024390244);
#164 = AXIS2_PLACEMENT_3D('',#165,#166,#167);
#165 = CARTESIAN_POINT('',(13.310975609756,-1.210975609756,10.78));
#166 = DIRECTION('',(0.E+000,0.E+000,-1.));
#167 = DIRECTION('',(1.,0.E+000,0.E+000));
#168 = ORIENTED_EDGE('',*,*,#169,.F.);
#169 = EDGE_CURVE('',#161,#161,#170,.T.);
#170 = CIRCLE('',#171,8.310975609756);
#171 = AXIS2_PLACEMENT_3D('',#172,#173,#174);
#172 = CARTESIAN_POINT('',(5.,-3.65,10.78));
#173 = DIRECTION('',(0.E+000,-1.,0.E+000));
#174 = DIRECTION('',(1.,0.E+000,0.E+000));
#175 = ORIENTED_EDGE('',*,*,#160,.F.);
#176 = FACE_BOUND('',#177,.T.);
#177 = EDGE_LOOP('',(#178,#208));
#178 = ORIENTED_EDGE('',*,*,#179,.T.);
#179 = EDGE_CURVE('',#180,#182,#184,.T.);
#180 = VERTEX_POINT('',#181);
#181 = CARTESIAN_POINT('',(10.45,-2.3,1.812926179348));
#182 = VERTEX_POINT('',#183);
#183 = CARTESIAN_POINT('',(9.794365570141,-1.899731988217,1.269367706871
));
#184 = B_SPLINE_CURVE_WITH_KNOTS('',8,(#185,#186,#187,#188,#189,#190,
#191,#192,#193,#194,#195,#196,#197,#198,#199,#200,#201,#202,#203,
#204,#205,#206,#207),.UNSPECIFIED.,.F.,.F.,(9,7,7,9),(0.E+000,
0.245874521326,0.464782606803,1.),.UNSPECIFIED.);
#185 = CARTESIAN_POINT('',(10.45,-2.3,1.812926179348));
#186 = CARTESIAN_POINT('',(10.45,-2.2730563832,1.797192736698));
#187 = CARTESIAN_POINT('',(10.448156311369,-2.246201904836,
1.780954957858));
#188 = CARTESIAN_POINT('',(10.44449022209,-2.219554595881,1.764281194621
));
#189 = CARTESIAN_POINT('',(10.439025995384,-2.193230848864,
1.747230456071));
#190 = CARTESIAN_POINT('',(10.431791404222,-2.167345931708,
1.729854189089));
#191 = CARTESIAN_POINT('',(10.422818265839,-2.142014501562,1.71219805887
));
#192 = CARTESIAN_POINT('',(10.412142976245,-2.117351118629,
1.694303729433));
#193 = CARTESIAN_POINT('',(10.388824063939,-2.072209494054,
1.660101928842));
#194 = CARTESIAN_POINT('',(10.376525133504,-2.051569690245,
1.643836221137));
#195 = CARTESIAN_POINT('',(10.362939743197,-2.031632472456,
1.627441470243));
#196 = CARTESIAN_POINT('',(10.348101071132,-2.012479983556,
1.610944686143));
#197 = CARTESIAN_POINT('',(10.332046592156,-1.994195270409,
1.594372950411));
#198 = CARTESIAN_POINT('',(10.314818686226,-1.976862168883,
1.577754427047));
#199 = CARTESIAN_POINT('',(10.296465246788,-1.960565188855,1.56111937331
));
#200 = CARTESIAN_POINT('',(10.22954741028,-1.908285486176,1.503870573354
));
#201 = CARTESIAN_POINT('',(10.175537588063,-1.877796617057,
1.463245386675));
#202 = CARTESIAN_POINT('',(10.115715712196,-1.855195040581,
1.423086398748));
#203 = CARTESIAN_POINT('',(10.051240399124,-1.842017923379,
1.384196064126));
#204 = CARTESIAN_POINT('',(9.984023740032,-1.839703046521,1.347748462118
));
#205 = CARTESIAN_POINT('',(9.91674732731,-1.849098355752,1.315344961076)
);
#206 = CARTESIAN_POINT('',(9.852602112539,-1.869813439044,1.28886216427)
);
#207 = CARTESIAN_POINT('',(9.794365570141,-1.899731988217,1.269367706871
));
#208 = ORIENTED_EDGE('',*,*,#209,.T.);
#209 = EDGE_CURVE('',#182,#180,#210,.T.);
#210 = B_SPLINE_CURVE_WITH_KNOTS('',8,(#211,#212,#213,#214,#215,#216,
#217,#218,#219,#220,#221,#222,#223,#224,#225,#226,#227,#228,#229,
#230,#231,#232,#233,#234,#235,#236,#237,#238,#239,#240,#241,#242,
#243,#244,#245,#246,#247,#248,#249,#250,#251,#252,#253,#254,#255,
#256,#257,#258,#259,#260,#261,#262,#263,#264,#265,#266,#267,#268),
.UNSPECIFIED.,.F.,.F.,(9,7,7,7,7,7,7,7,9),(0.E+000,0.120400660238,
0.228310788575,0.284289703946,0.449058269064,0.604749827994,
0.808153841545,0.854617243712,1.),.UNSPECIFIED.);
#211 = CARTESIAN_POINT('',(9.794365570141,-1.899731988217,1.269367706871
));
#212 = CARTESIAN_POINT('',(9.766915053939,-1.913834467262,1.260178752708
));
#213 = CARTESIAN_POINT('',(9.740608362059,-1.930068479766,1.252486059115
));
#214 = CARTESIAN_POINT('',(9.71565842188,-1.948311854324,1.246399352673)
);
#215 = CARTESIAN_POINT('',(9.692260559283,-1.968411269037,1.242015784729
));
#216 = CARTESIAN_POINT('',(9.670587704988,-1.990185834713,1.239413883401
));
#217 = CARTESIAN_POINT('',(9.650785600903,-2.013430678086,1.238647505603
));
#218 = CARTESIAN_POINT('',(9.632968006463,-2.037920525027,1.239739789054
));
#219 = CARTESIAN_POINT('',(9.603090363357,-2.086261388242,1.245309698372
));
#220 = CARTESIAN_POINT('',(9.590621394858,-2.109920735236,1.24942498001)
);
#221 = CARTESIAN_POINT('',(9.579861065386,-2.134219505741,1.255014624877
));
#222 = CARTESIAN_POINT('',(9.57083547868,-2.158986799449,1.262048292863)
);
#223 = CARTESIAN_POINT('',(9.563545375047,-2.184058636925,1.270476926316
));
#224 = CARTESIAN_POINT('',(9.557970804545,-2.209282125019,1.280236239424
));
#225 = CARTESIAN_POINT('',(9.554075874604,-2.234517785487,1.291250398747
));
#226 = CARTESIAN_POINT('',(9.550639991387,-2.272672344765,1.30975718159)
);
#227 = CARTESIAN_POINT('',(9.549905678173,-2.285675067202,1.316394135952
));
#228 = CARTESIAN_POINT('',(9.549604100212,-2.298631275825,1.323335452025
));
#229 = CARTESIAN_POINT('',(9.549728029555,-2.31152521559,1.330569428904)
);
#230 = CARTESIAN_POINT('',(9.550269718598,-2.324342274666,1.338084090461
));
#231 = CARTESIAN_POINT('',(9.551221076156,-2.337068944378,1.345867305074
));
#232 = CARTESIAN_POINT('',(9.552573843539,-2.349692779144,1.353906905353
));
#233 = CARTESIAN_POINT('',(9.559458739447,-2.399023096583,1.386573679914
));
#234 = CARTESIAN_POINT('',(9.568002313062,-2.434842064551,1.413065236845
));
#235 = CARTESIAN_POINT('',(9.579737552219,-2.469383945024,1.44136461424)
);
#236 = CARTESIAN_POINT('',(9.594457499488,-2.502428843725,1.47116945168)
);
#237 = CARTESIAN_POINT('',(9.611975099019,-2.533798056659,1.5021840506)
);
#238 = CARTESIAN_POINT('',(9.632133212121,-2.563337203222,1.534120524735
));
#239 = CARTESIAN_POINT('',(9.654810728674,-2.590896723153,1.566692943147
));
#240 = CARTESIAN_POINT('',(9.703655301605,-2.640322763067,1.630702911565
));
#241 = CARTESIAN_POINT('',(9.729535831475,-2.662393676304,1.662071111161
));
#242 = CARTESIAN_POINT('',(9.75750947898,-2.682407738094,1.693482206003)
);
#243 = CARTESIAN_POINT('',(9.787529240797,-2.700199488955,1.724667936395
));
#244 = CARTESIAN_POINT('',(9.819544017001,-2.715550852398,1.755298369626
));
#245 = CARTESIAN_POINT('',(9.853479717239,-2.728189710637,1.784971653566
));
#246 = CARTESIAN_POINT('',(9.889215451357,-2.737788952472,1.813213795828
));
#247 = CARTESIAN_POINT('',(9.975336988532,-2.752036019212,1.873815145608
));
#248 = CARTESIAN_POINT('',(10.027209182531,-2.754323920334,
1.905032333938));
#249 = CARTESIAN_POINT('',(10.080477039002,-2.749610397899,1.93093510575
));
#250 = CARTESIAN_POINT('',(10.133281845526,-2.737446517774,
1.949923076171));
#251 = CARTESIAN_POINT('',(10.183847617786,-2.718095836669,
1.961439789364));
#252 = CARTESIAN_POINT('',(10.230716599106,-2.692378808559,
1.965922283559));
#253 = CARTESIAN_POINT('',(10.27289529996,-2.66141253089,1.964207608788)
);
#254 = CARTESIAN_POINT('',(10.318244403427,-2.618364084873,
1.955698455688));
#255 = CARTESIAN_POINT('',(10.326408323339,-2.610140932975,
1.953843088471));
#256 = CARTESIAN_POINT('',(10.334297446544,-2.601711620303,
1.951725447911));
#257 = CARTESIAN_POINT('',(10.341906783269,-2.593088069327,
1.949356425633));
#258 = CARTESIAN_POINT('',(10.349232215215,-2.584282010417,1.94674688026
));
#259 = CARTESIAN_POINT('',(10.356270406906,-2.575304904028,
1.943907510719));
#260 = CARTESIAN_POINT('',(10.363018717051,-2.566167862892,
1.940848729535));
#261 = CARTESIAN_POINT('',(10.389676992325,-2.52782502255,1.927354445411
));
#262 = CARTESIAN_POINT('',(10.407013098472,-2.497318405173,
1.915081922883));
#263 = CARTESIAN_POINT('',(10.421434798773,-2.465677344623,
1.901068479081));
#264 = CARTESIAN_POINT('',(10.43292721848,-2.433196251108,1.885582836007
));
#265 = CARTESIAN_POINT('',(10.441500042653,-2.400147232015,
1.868853870284));
#266 = CARTESIAN_POINT('',(10.447179282062,-2.366780563833,
1.851070850962));
#267 = CARTESIAN_POINT('',(10.45,-2.333326726474,1.832386971994));
#268 = CARTESIAN_POINT('',(10.45,-2.3,1.812926179348));
#269 = TOROIDAL_SURFACE('',#270,8.310975609756,2.439024390244);
#270 = AXIS2_PLACEMENT_3D('',#271,#272,#273);
#271 = CARTESIAN_POINT('',(5.,-1.210975609756,10.78));
#272 = DIRECTION('',(0.E+000,-1.,0.E+000));
#273 = DIRECTION('',(1.,0.E+000,0.E+000));
#274 = ADVANCED_FACE('',(#275),#278,.F.);
#275 = FACE_BOUND('',#276,.F.);
#276 = EDGE_LOOP('',(#277));
#277 = ORIENTED_EDGE('',*,*,#64,.T.);
#278 = PLANE('',#279);
#279 = AXIS2_PLACEMENT_3D('',#280,#281,#282);
#280 = CARTESIAN_POINT('',(5.,1.35,10.78));
#281 = DIRECTION('',(-0.E+000,-1.,-0.E+000));
#282 = DIRECTION('',(0.E+000,0.E+000,-1.));
#283 = ADVANCED_FACE('',(#284),#304,.T.);
#284 = FACE_BOUND('',#285,.T.);
#285 = EDGE_LOOP('',(#286,#287,#295,#302,#303));
#286 = ORIENTED_EDGE('',*,*,#104,.T.);
#287 = ORIENTED_EDGE('',*,*,#288,.T.);
#288 = EDGE_CURVE('',#75,#289,#291,.T.);
#289 = VERTEX_POINT('',#290);
#290 = CARTESIAN_POINT('',(0.45,0.E+000,-2.82));
#291 = LINE('',#292,#293);
#292 = CARTESIAN_POINT('',(0.45,0.E+000,10.78));
#293 = VECTOR('',#294,1.);
#294 = DIRECTION('',(-0.E+000,-0.E+000,-1.));
#295 = ORIENTED_EDGE('',*,*,#296,.T.);
#296 = EDGE_CURVE('',#289,#289,#297,.T.);
#297 = CIRCLE('',#298,0.45);
#298 = AXIS2_PLACEMENT_3D('',#299,#300,#301);
#299 = CARTESIAN_POINT('',(0.E+000,0.E+000,-2.82));
#300 = DIRECTION('',(0.E+000,0.E+000,1.));
#301 = DIRECTION('',(1.,0.E+000,0.E+000));
#302 = ORIENTED_EDGE('',*,*,#288,.F.);
#303 = ORIENTED_EDGE('',*,*,#74,.T.);
#304 = CYLINDRICAL_SURFACE('',#305,0.45);
#305 = AXIS2_PLACEMENT_3D('',#306,#307,#308);
#306 = CARTESIAN_POINT('',(0.E+000,0.E+000,10.78));
#307 = DIRECTION('',(0.E+000,0.E+000,1.));
#308 = DIRECTION('',(1.,0.E+000,0.E+000));
#309 = ADVANCED_FACE('',(#310),#313,.T.);
#310 = FACE_BOUND('',#311,.T.);
#311 = EDGE_LOOP('',(#312));
#312 = ORIENTED_EDGE('',*,*,#169,.T.);
#313 = PLANE('',#314);
#314 = AXIS2_PLACEMENT_3D('',#315,#316,#317);
#315 = CARTESIAN_POINT('',(5.,-3.65,10.78));
#316 = DIRECTION('',(-0.E+000,-1.,-0.E+000));
#317 = DIRECTION('',(0.E+000,0.E+000,-1.));
#318 = ADVANCED_FACE('',(#319),#339,.T.);
#319 = FACE_BOUND('',#320,.T.);
#320 = EDGE_LOOP('',(#321,#322,#330,#337,#338));
#321 = ORIENTED_EDGE('',*,*,#179,.F.);
#322 = ORIENTED_EDGE('',*,*,#323,.T.);
#323 = EDGE_CURVE('',#180,#324,#326,.T.);
#324 = VERTEX_POINT('',#325);
#325 = CARTESIAN_POINT('',(10.45,-2.3,-2.82));
#326 = LINE('',#327,#328);
#327 = CARTESIAN_POINT('',(10.45,-2.3,10.78));
#328 = VECTOR('',#329,1.);
#329 = DIRECTION('',(-0.E+000,-0.E+000,-1.));
#330 = ORIENTED_EDGE('',*,*,#331,.T.);
#331 = EDGE_CURVE('',#324,#324,#332,.T.);
#332 = CIRCLE('',#333,0.45);
#333 = AXIS2_PLACEMENT_3D('',#334,#335,#336);
#334 = CARTESIAN_POINT('',(10.,-2.3,-2.82));
#335 = DIRECTION('',(0.E+000,0.E+000,1.));
#336 = DIRECTION('',(1.,0.E+000,0.E+000));
#337 = ORIENTED_EDGE('',*,*,#323,.F.);
#338 = ORIENTED_EDGE('',*,*,#209,.F.);
#339 = CYLINDRICAL_SURFACE('',#340,0.45);
#340 = AXIS2_PLACEMENT_3D('',#341,#342,#343);
#341 = CARTESIAN_POINT('',(10.,-2.3,10.78));
#342 = DIRECTION('',(0.E+000,0.E+000,1.));
#343 = DIRECTION('',(1.,0.E+000,0.E+000));
#344 = ADVANCED_FACE('',(#345),#365,.T.);
#345 = FACE_BOUND('',#346,.F.);
#346 = EDGE_LOOP('',(#347,#356,#357,#358));
#347 = ORIENTED_EDGE('',*,*,#348,.F.);
#348 = EDGE_CURVE('',#289,#349,#351,.T.);
#349 = VERTEX_POINT('',#350);
#350 = CARTESIAN_POINT('',(0.27,0.E+000,-3.));
#351 = CIRCLE('',#352,0.18);
#352 = AXIS2_PLACEMENT_3D('',#353,#354,#355);
#353 = CARTESIAN_POINT('',(0.27,0.E+000,-2.82));
#354 = DIRECTION('',(-0.E+000,1.,0.E+000));
#355 = DIRECTION('',(1.,0.E+000,0.E+000));
#356 = ORIENTED_EDGE('',*,*,#296,.T.);
#357 = ORIENTED_EDGE('',*,*,#348,.T.);
#358 = ORIENTED_EDGE('',*,*,#359,.F.);
#359 = EDGE_CURVE('',#349,#349,#360,.T.);
#360 = CIRCLE('',#361,0.27);
#361 = AXIS2_PLACEMENT_3D('',#362,#363,#364);
#362 = CARTESIAN_POINT('',(0.E+000,0.E+000,-3.));
#363 = DIRECTION('',(0.E+000,0.E+000,1.));
#364 = DIRECTION('',(1.,0.E+000,0.E+000));
#365 = TOROIDAL_SURFACE('',#366,0.27,0.18);
#366 = AXIS2_PLACEMENT_3D('',#367,#368,#369);
#367 = CARTESIAN_POINT('',(0.E+000,0.E+000,-2.82));
#368 = DIRECTION('',(-0.E+000,-0.E+000,-1.));
#369 = DIRECTION('',(1.,0.E+000,0.E+000));
#370 = ADVANCED_FACE('',(#371),#391,.T.);
#371 = FACE_BOUND('',#372,.F.);
#372 = EDGE_LOOP('',(#373,#382,#383,#384));
#373 = ORIENTED_EDGE('',*,*,#374,.F.);
#374 = EDGE_CURVE('',#324,#375,#377,.T.);
#375 = VERTEX_POINT('',#376);
#376 = CARTESIAN_POINT('',(10.27,-2.3,-3.));
#377 = CIRCLE('',#378,0.18);
#378 = AXIS2_PLACEMENT_3D('',#379,#380,#381);
#379 = CARTESIAN_POINT('',(10.27,-2.3,-2.82));
#380 = DIRECTION('',(-0.E+000,1.,0.E+000));
#381 = DIRECTION('',(1.,0.E+000,0.E+000));
#382 = ORIENTED_EDGE('',*,*,#331,.T.);
#383 = ORIENTED_EDGE('',*,*,#374,.T.);
#384 = ORIENTED_EDGE('',*,*,#385,.F.);
#385 = EDGE_CURVE('',#375,#375,#386,.T.);
#386 = CIRCLE('',#387,0.27);
#387 = AXIS2_PLACEMENT_3D('',#388,#389,#390);
#388 = CARTESIAN_POINT('',(10.,-2.3,-3.));
#389 = DIRECTION('',(0.E+000,0.E+000,1.));
#390 = DIRECTION('',(1.,0.E+000,0.E+000));
#391 = TOROIDAL_SURFACE('',#392,0.27,0.18);
#392 = AXIS2_PLACEMENT_3D('',#393,#394,#395);
#393 = CARTESIAN_POINT('',(10.,-2.3,-2.82));
#394 = DIRECTION('',(-0.E+000,-0.E+000,-1.));
#395 = DIRECTION('',(1.,0.E+000,0.E+000));
#396 = ADVANCED_FACE('',(#397),#400,.F.);
#397 = FACE_BOUND('',#398,.F.);
#398 = EDGE_LOOP('',(#399));
#399 = ORIENTED_EDGE('',*,*,#359,.T.);
#400 = PLANE('',#401);
#401 = AXIS2_PLACEMENT_3D('',#402,#403,#404);
#402 = CARTESIAN_POINT('',(-1.18701400394E-017,2.911085817041E-017,-3.)
);
#403 = DIRECTION('',(0.E+000,0.E+000,1.));
#404 = DIRECTION('',(1.,0.E+000,0.E+000));
#405 = ADVANCED_FACE('',(#406),#409,.F.);
#406 = FACE_BOUND('',#407,.F.);
#407 = EDGE_LOOP('',(#408));
#408 = ORIENTED_EDGE('',*,*,#385,.T.);
#409 = PLANE('',#410);
#410 = AXIS2_PLACEMENT_3D('',#411,#412,#413);
#411 = CARTESIAN_POINT('',(10.,-2.3,-3.));
#412 = DIRECTION('',(0.E+000,0.E+000,1.));
#413 = DIRECTION('',(1.,0.E+000,0.E+000));
#414 = ( GEOMETRIC_REPRESENTATION_CONTEXT(3)
GLOBAL_UNCERTAINTY_ASSIGNED_CONTEXT((#418)) GLOBAL_UNIT_ASSIGNED_CONTEXT
((#415,#416,#417)) REPRESENTATION_CONTEXT('Context #1',
'3D Context with UNIT and UNCERTAINTY') );
#415 = ( LENGTH_UNIT() NAMED_UNIT(*) SI_UNIT(.MILLI.,.METRE.) );
#416 = ( NAMED_UNIT(*) PLANE_ANGLE_UNIT() SI_UNIT($,.RADIAN.) );
#417 = ( NAMED_UNIT(*) SI_UNIT($,.STERADIAN.) SOLID_ANGLE_UNIT() );
#418 = UNCERTAINTY_MEASURE_WITH_UNIT(LENGTH_MEASURE(1.E-007),#415,
'distance_accuracy_value','confusion accuracy');
#419 = PRODUCT_RELATED_PRODUCT_CATEGORY('part',$,(#7));
#420 = MECHANICAL_DESIGN_GEOMETRIC_PRESENTATION_REPRESENTATION('',(#421,
#429,#436,#443,#450,#458,#465,#472,#479,#486,#493),#414);
#421 = STYLED_ITEM('color',(#422),#17);
#422 = PRESENTATION_STYLE_ASSIGNMENT((#423));
#423 = SURFACE_STYLE_USAGE(.BOTH.,#424);
#424 = SURFACE_SIDE_STYLE('',(#425));
#425 = SURFACE_STYLE_FILL_AREA(#426);
#426 = FILL_AREA_STYLE('',(#427));
#427 = FILL_AREA_STYLE_COLOUR('',#428);
#428 = COLOUR_RGB('',0.136999994516,0.402000010014,0.726999998093);
#429 = STYLED_ITEM('color',(#430),#50);
#430 = PRESENTATION_STYLE_ASSIGNMENT((#431));
#431 = SURFACE_STYLE_USAGE(.BOTH.,#432);
#432 = SURFACE_SIDE_STYLE('',(#433));
#433 = SURFACE_STYLE_FILL_AREA(#434);
#434 = FILL_AREA_STYLE('',(#435));
#435 = FILL_AREA_STYLE_COLOUR('',#428);
#436 = STYLED_ITEM('color',(#437),#155);
#437 = PRESENTATION_STYLE_ASSIGNMENT((#438));
#438 = SURFACE_STYLE_USAGE(.BOTH.,#439);
#439 = SURFACE_SIDE_STYLE('',(#440));
#440 = SURFACE_STYLE_FILL_AREA(#441);
#441 = FILL_AREA_STYLE('',(#442));
#442 = FILL_AREA_STYLE_COLOUR('',#428);
#443 = STYLED_ITEM('color',(#444),#274);
#444 = PRESENTATION_STYLE_ASSIGNMENT((#445));
#445 = SURFACE_STYLE_USAGE(.BOTH.,#446);
#446 = SURFACE_SIDE_STYLE('',(#447));
#447 = SURFACE_STYLE_FILL_AREA(#448);
#448 = FILL_AREA_STYLE('',(#449));
#449 = FILL_AREA_STYLE_COLOUR('',#428);
#450 = STYLED_ITEM('color',(#451),#283);
#451 = PRESENTATION_STYLE_ASSIGNMENT((#452));
#452 = SURFACE_STYLE_USAGE(.BOTH.,#453);
#453 = SURFACE_SIDE_STYLE('',(#454));
#454 = SURFACE_STYLE_FILL_AREA(#455);
#455 = FILL_AREA_STYLE('',(#456));
#456 = FILL_AREA_STYLE_COLOUR('',#457);
#457 = COLOUR_RGB('',0.824000000954,0.819999992847,0.78100001812);
#458 = STYLED_ITEM('color',(#459),#309);
#459 = PRESENTATION_STYLE_ASSIGNMENT((#460));
#460 = SURFACE_STYLE_USAGE(.BOTH.,#461);
#461 = SURFACE_SIDE_STYLE('',(#462));
#462 = SURFACE_STYLE_FILL_AREA(#463);
#463 = FILL_AREA_STYLE('',(#464));
#464 = FILL_AREA_STYLE_COLOUR('',#428);
#465 = STYLED_ITEM('color',(#466),#318);
#466 = PRESENTATION_STYLE_ASSIGNMENT((#467));
#467 = SURFACE_STYLE_USAGE(.BOTH.,#468);
#468 = SURFACE_SIDE_STYLE('',(#469));
#469 = SURFACE_STYLE_FILL_AREA(#470);
#470 = FILL_AREA_STYLE('',(#471));
#471 = FILL_AREA_STYLE_COLOUR('',#457);
#472 = STYLED_ITEM('color',(#473),#344);
#473 = PRESENTATION_STYLE_ASSIGNMENT((#474));
#474 = SURFACE_STYLE_USAGE(.BOTH.,#475);
#475 = SURFACE_SIDE_STYLE('',(#476));
#476 = SURFACE_STYLE_FILL_AREA(#477);
#477 = FILL_AREA_STYLE('',(#478));
#478 = FILL_AREA_STYLE_COLOUR('',#457);
#479 = STYLED_ITEM('color',(#480),#370);
#480 = PRESENTATION_STYLE_ASSIGNMENT((#481));
#481 = SURFACE_STYLE_USAGE(.BOTH.,#482);
#482 = SURFACE_SIDE_STYLE('',(#483));
#483 = SURFACE_STYLE_FILL_AREA(#484);
#484 = FILL_AREA_STYLE('',(#485));
#485 = FILL_AREA_STYLE_COLOUR('',#457);
#486 = STYLED_ITEM('color',(#487),#396);
#487 = PRESENTATION_STYLE_ASSIGNMENT((#488));
#488 = SURFACE_STYLE_USAGE(.BOTH.,#489);
#489 = SURFACE_SIDE_STYLE('',(#490));
#490 = SURFACE_STYLE_FILL_AREA(#491);
#491 = FILL_AREA_STYLE('',(#492));
#492 = FILL_AREA_STYLE_COLOUR('',#457);
#493 = STYLED_ITEM('color',(#494),#405);
#494 = PRESENTATION_STYLE_ASSIGNMENT((#495));
#495 = SURFACE_STYLE_USAGE(.BOTH.,#496);
#496 = SURFACE_SIDE_STYLE('',(#497));
#497 = SURFACE_STYLE_FILL_AREA(#498);
#498 = FILL_AREA_STYLE('',(#499));
#499 = FILL_AREA_STYLE_COLOUR('',#457);
ENDSEC;
END-ISO-10303-21;
