ISO-10303-21;
HEADER;
/* RV_Disc_D15.5mm_W8mm_P7.5mm.step 3D STEP model for use in ECAD systems
 * Copyright (C) 2018, kicad StepUp
 * 
 * This work is licensed under the [Creative Commons CC-BY-SA 4.0 License](https://creativecommons.org/licenses/by-sa/4.0/legalcode), 
 * with the following exception:
 * To the extent that the creation of electronic designs that use 'Licensed Material' can be considered to be 'Adapted Material', 
 * then the copyright holder waives article 3 of the license with respect to these designs and any generated files which use data provided 
 * as part of the 'Licensed Material'.
 * You are free to use the library data in your own projects without the obligation to share your project files under this or any other license agreement.
 * However, if you wish to redistribute these libraries, or parts thereof (including in modified form) as a collection then the exception above does not apply. 
 * Please refer to https://github.com/KiCad/kicad-packages3D/blob/master/LICENSE.md for further clarification of the exception.
 * Disclaimer of Warranties and Limitation of Liability.
 * These libraries are provided in the hope that they will be useful, but are provided without warranty of any kind, express or implied.
 * *USE 3D CAD DATA AT YOUR OWN RISK*
 * *DO NOT RELY UPON ANY INFORMATION FOUND HERE WITHOUT INDEPENDENT VERIFICATION.*
 * 
 */

FILE_DESCRIPTION(
/* description */ ('model of RV_Disc_D15.5mm_W8mm_P7.5mm'),
/* implementation_level */ '2;1');

FILE_NAME(
/* name */ 'RV_Disc_D15.5mm_W8mm_P7.5mm.step',
/* time_stamp */ '2018-11-11T21:02:01',
/* author */ ('kicad StepUp','ksu'),
/* organization */ ('FreeCAD'),
/* preprocessor_version */ 'OCC',
/* originating_system */ 'kicad StepUp',
/* authorisation */ '');

FILE_SCHEMA(('AUTOMOTIVE_DESIGN { 1 0 10303 214 1 1 1 1 }'));
ENDSEC;

DATA;
#1 = APPLICATION_PROTOCOL_DEFINITION('international standard',
'automotive_design',2000,#2);
#2 = APPLICATION_CONTEXT(
'core data for automotive mechanical design processes');
#3 = SHAPE_DEFINITION_REPRESENTATION(#4,#10);
#4 = PRODUCT_DEFINITION_SHAPE('','',#5);
#5 = PRODUCT_DEFINITION('design','',#6,#9);
#6 = PRODUCT_DEFINITION_FORMATION('','',#7);
#7 = PRODUCT('RV_Disc_D155mm_W8mm_P75mm','RV_Disc_D155mm_W8mm_P75mm','',
(#8));
#8 = PRODUCT_CONTEXT('',#2,'mechanical');
#9 = PRODUCT_DEFINITION_CONTEXT('part definition',#2,'design');
#10 = ADVANCED_BREP_SHAPE_REPRESENTATION('',(#11,#15),#409);
#11 = AXIS2_PLACEMENT_3D('',#12,#13,#14);
#12 = CARTESIAN_POINT('',(0.E+000,0.E+000,0.E+000));
#13 = DIRECTION('',(0.E+000,0.E+000,1.));
#14 = DIRECTION('',(1.,0.E+000,-0.E+000));
#15 = MANIFOLD_SOLID_BREP('',#16);
#16 = CLOSED_SHELL('',(#17,#50,#161,#269,#278,#304,#313,#339,#365,#391,
#400));
#17 = ADVANCED_FACE('',(#18),#45,.T.);
#18 = FACE_BOUND('',#19,.F.);
#19 = EDGE_LOOP('',(#20,#30,#37,#38));
#20 = ORIENTED_EDGE('',*,*,#21,.T.);
#21 = EDGE_CURVE('',#22,#24,#26,.T.);
#22 = VERTEX_POINT('',#23);
#23 = CARTESIAN_POINT('',(11.5,-2.10243902439,7.78));
#24 = VERTEX_POINT('',#25);
#25 = CARTESIAN_POINT('',(11.5,-2.29756097561,7.78));
#26 = LINE('',#27,#28);
#27 = CARTESIAN_POINT('',(11.5,1.8,7.78));
#28 = VECTOR('',#29,1.);
#29 = DIRECTION('',(0.E+000,-1.,0.E+000));
#30 = ORIENTED_EDGE('',*,*,#31,.T.);
#31 = EDGE_CURVE('',#24,#24,#32,.T.);
#32 = CIRCLE('',#33,7.75);
#33 = AXIS2_PLACEMENT_3D('',#34,#35,#36);
#34 = CARTESIAN_POINT('',(3.75,-2.29756097561,7.78));
#35 = DIRECTION('',(1.09450004193E-033,-1.,7.66150029351E-033));
#36 = DIRECTION('',(1.,1.09450004193E-033,-3.857875836228E-033));
#37 = ORIENTED_EDGE('',*,*,#21,.F.);
#38 = ORIENTED_EDGE('',*,*,#39,.F.);
#39 = EDGE_CURVE('',#22,#22,#40,.T.);
#40 = CIRCLE('',#41,7.75);
#41 = AXIS2_PLACEMENT_3D('',#42,#43,#44);
#42 = CARTESIAN_POINT('',(3.75,-2.10243902439,7.78));
#43 = DIRECTION('',(1.09450004193E-033,-1.,7.66150029351E-033));
#44 = DIRECTION('',(1.,1.09450004193E-033,3.857875836228E-033));
#45 = CYLINDRICAL_SURFACE('',#46,7.75);
#46 = AXIS2_PLACEMENT_3D('',#47,#48,#49);
#47 = CARTESIAN_POINT('',(3.75,1.8,7.78));
#48 = DIRECTION('',(0.E+000,1.,0.E+000));
#49 = DIRECTION('',(1.,0.E+000,0.E+000));
#50 = ADVANCED_FACE('',(#51,#71),#144,.T.);
#51 = FACE_BOUND('',#52,.F.);
#52 = EDGE_LOOP('',(#53,#54,#63,#70));
#53 = ORIENTED_EDGE('',*,*,#39,.T.);
#54 = ORIENTED_EDGE('',*,*,#55,.T.);
#55 = EDGE_CURVE('',#22,#56,#58,.T.);
#56 = VERTEX_POINT('',#57);
#57 = CARTESIAN_POINT('',(7.59756097561,1.8,7.78));
#58 = CIRCLE('',#59,3.90243902439);
#59 = AXIS2_PLACEMENT_3D('',#60,#61,#62);
#60 = CARTESIAN_POINT('',(7.59756097561,-2.10243902439,7.78));
#61 = DIRECTION('',(-3.857875836228E-033,7.66150029351E-033,1.));
#62 = DIRECTION('',(1.,1.09450004193E-033,3.857875836228E-033));
#63 = ORIENTED_EDGE('',*,*,#64,.F.);
#64 = EDGE_CURVE('',#56,#56,#65,.T.);
#65 = CIRCLE('',#66,3.84756097561);
#66 = AXIS2_PLACEMENT_3D('',#67,#68,#69);
#67 = CARTESIAN_POINT('',(3.75,1.8,7.78));
#68 = DIRECTION('',(1.09450004193E-033,-1.,7.66150029351E-033));
#69 = DIRECTION('',(1.,1.09450004193E-033,3.857875836228E-033));
#70 = ORIENTED_EDGE('',*,*,#55,.F.);
#71 = FACE_BOUND('',#72,.F.);
#72 = EDGE_LOOP('',(#73,#97));
#73 = ORIENTED_EDGE('',*,*,#74,.T.);
#74 = EDGE_CURVE('',#75,#77,#79,.T.);
#75 = VERTEX_POINT('',#76);
#76 = CARTESIAN_POINT('',(0.36,0.E+000,1.501510126387));
#77 = VERTEX_POINT('',#78);
#78 = CARTESIAN_POINT('',(4.476168181604E-002,-0.357206371501,
1.446161240363));
#79 = B_SPLINE_CURVE_WITH_KNOTS('',6,(#80,#81,#82,#83,#84,#85,#86,#87,
#88,#89,#90,#91,#92,#93,#94,#95,#96),.UNSPECIFIED.,.F.,.F.,(7,5,5,7)
,(0.E+000,0.196944105466,0.548808480265,1.),.UNSPECIFIED.);
#80 = CARTESIAN_POINT('',(0.36,1.665334536938E-016,1.501510126387));
#81 = CARTESIAN_POINT('',(0.36,-1.587623919498E-002,1.489971992025));
#82 = CARTESIAN_POINT('',(0.359159805843,-3.187711709581E-002,
1.478949978525));
#83 = CARTESIAN_POINT('',(0.357454730912,-4.795463983809E-002,
1.468490707477));
#84 = CARTESIAN_POINT('',(0.354861870827,-6.405359248346E-002,
1.458642920715));
#85 = CARTESIAN_POINT('',(0.35136299491,-8.011169357622E-002,
1.449455562714));
#86 = CARTESIAN_POINT('',(0.339058512543,-0.124552873594,1.425825857695)
);
#87 = CARTESIAN_POINT('',(0.328242026706,-0.152700081315,1.412931884692)
);
#88 = CARTESIAN_POINT('',(0.314439091466,-0.180095789966,1.402570220052)
);
#89 = CARTESIAN_POINT('',(0.297674357328,-0.206269221308,1.394992082844)
);
#90 = CARTESIAN_POINT('',(0.278121769199,-0.230711476301,1.390369680607)
);
#91 = CARTESIAN_POINT('',(0.227927472944,-0.281530866596,1.386637782897)
);
#92 = CARTESIAN_POINT('',(0.195690273866,-0.306530141828,1.389451036424)
);
#93 = CARTESIAN_POINT('',(0.160161636085,-0.327000411528,1.397259654589)
);
#94 = CARTESIAN_POINT('',(0.122420445036,-0.342325187012,1.409723466522)
);
#95 = CARTESIAN_POINT('',(8.360971378757E-002,-0.352338308149,
1.42625543386));
#96 = CARTESIAN_POINT('',(4.476168181604E-002,-0.357206371501,
1.446161240363));
#97 = ORIENTED_EDGE('',*,*,#98,.T.);
#98 = EDGE_CURVE('',#77,#75,#99,.T.);
#99 = B_SPLINE_CURVE_WITH_KNOTS('',7,(#100,#101,#102,#103,#104,#105,#106
,#107,#108,#109,#110,#111,#112,#113,#114,#115,#116,#117,#118,#119,
#120,#121,#122,#123,#124,#125,#126,#127,#128,#129,#130,#131,#132,
#133,#134,#135,#136,#137,#138,#139,#140,#141,#142,#143),
.UNSPECIFIED.,.F.,.F.,(8,6,6,6,6,6,6,8),(0.E+000,0.227960199671,
0.423385890986,0.471682792134,0.557387750667,0.734674474385,
0.837377674642,1.),.UNSPECIFIED.);
#100 = CARTESIAN_POINT('',(4.476168181604E-002,-0.357206371501,
1.446161240363));
#101 = CARTESIAN_POINT('',(-1.542947017173E-002,-0.364748950269,
1.477003302724));
#102 = CARTESIAN_POINT('',(-7.554809700349E-002,-0.360263347775,
1.515638398989));
#103 = CARTESIAN_POINT('',(-0.132677060736,-0.344504813662,
1.559933099364));
#104 = CARTESIAN_POINT('',(-0.184666594604,-0.319087020284,
1.607870639576));
#105 = CARTESIAN_POINT('',(-0.230208290494,-0.285715613876,
1.657886385893));
#106 = CARTESIAN_POINT('',(-0.268484229227,-0.245890229233,
1.708757002464));
#107 = CARTESIAN_POINT('',(-0.324723704334,-0.162232730645,
1.802833332592));
#108 = CARTESIAN_POINT('',(-0.344749964348,-0.119868398536,
1.846001978037));
#109 = CARTESIAN_POINT('',(-0.358412549603,-7.458374247165E-002,
1.888212970902));
#110 = CARTESIAN_POINT('',(-0.365257363117,-2.721828647364E-002,
1.92869028071));
#111 = CARTESIAN_POINT('',(-0.364815167431,2.127740286251E-002,
1.966473195127));
#112 = CARTESIAN_POINT('',(-0.356661350954,6.975481095302E-002,
2.000341024688));
#113 = CARTESIAN_POINT('',(-0.33654025992,0.128420011073,2.035800687838)
);
#114 = CARTESIAN_POINT('',(-0.332067049039,0.139953321101,2.042493047504
));
#115 = CARTESIAN_POINT('',(-0.327105086422,0.151371651931,2.048827521953
));
#116 = CARTESIAN_POINT('',(-0.321652955473,0.162650024414,2.05477923048)
);
#117 = CARTESIAN_POINT('',(-0.315711188912,0.173761737659,2.060322444983
));
#118 = CARTESIAN_POINT('',(-0.309282829727,0.184678633583,2.065431186332
));
#119 = CARTESIAN_POINT('',(-0.290113958356,0.214346073672,2.078329025327
));
#120 = CARTESIAN_POINT('',(-0.276338573551,0.232618454713,2.085130895137
));
#121 = CARTESIAN_POINT('',(-0.261085085234,0.250018296393,2.090339215933
));
#122 = CARTESIAN_POINT('',(-0.244423790427,0.26636523448,2.09381417054)
);
#123 = CARTESIAN_POINT('',(-0.226468547123,0.281479767798,2.095441015825
));
#124 = CARTESIAN_POINT('',(-0.207380891576,0.295199079566,2.095150830239
));
#125 = CARTESIAN_POINT('',(-0.145969196659,0.332631283067,2.088376966612
));
#126 = CARTESIAN_POINT('',(-0.100572034499,0.351381797176,2.07560277677)
);
#127 = CARTESIAN_POINT('',(-5.311170218833E-002,0.362436756436,
2.054593919514));
#128 = CARTESIAN_POINT('',(-5.720920539021E-003,0.365826201048,
2.026652305712));
#129 = CARTESIAN_POINT('',(4.012864722406E-002,0.362329148401,
1.993625829738));
#130 = CARTESIAN_POINT('',(8.350846225402E-002,0.352808565522,
1.957059712243));
#131 = CARTESIAN_POINT('',(0.14724709602,0.329451544796,1.895620388611)
);
#132 = CARTESIAN_POINT('',(0.169642261068,0.319104730171,1.872271059333)
);
#133 = CARTESIAN_POINT('',(0.190955126102,0.307111451698,1.84832471895)
);
#134 = CARTESIAN_POINT('',(0.211103725581,0.293591735431,1.823973539346)
);
#135 = CARTESIAN_POINT('',(0.23001577091,0.278654143958,1.799389784313)
);
#136 = CARTESIAN_POINT('',(0.247622818027,0.262397040849,1.774729468337)
);
#137 = CARTESIAN_POINT('',(0.28955590572,0.217220291407,1.711194244329)
);
#138 = CARTESIAN_POINT('',(0.311794332528,0.186462796897,1.672442847588)
);
#139 = CARTESIAN_POINT('',(0.330303685256,0.152992394445,1.634442409122)
);
#140 = CARTESIAN_POINT('',(0.3447636182,0.117152225368,1.597742974136));
#141 = CARTESIAN_POINT('',(0.354797225289,7.934053924211E-002,
1.562928099191));
#142 = CARTESIAN_POINT('',(0.36,4.00672416644E-002,1.530629189923));
#143 = CARTESIAN_POINT('',(0.36,1.665334536938E-016,1.501510126387));
#144 = SURFACE_OF_REVOLUTION('',#145,#158);
#145 = B_SPLINE_CURVE_WITH_KNOTS('',6,(#146,#147,#148,#149,#150,#151,
#152,#153,#154,#155,#156,#157),.UNSPECIFIED.,.F.,.F.,(7,5,7),(
0.E+000,0.785398163397,1.570796326795),.UNSPECIFIED.);
#146 = CARTESIAN_POINT('',(11.5,-2.10243902439,7.78));
#147 = CARTESIAN_POINT('',(11.5,-1.591610950636,7.78));
#148 = CARTESIAN_POINT('',(11.41975962856,-1.080783730104,7.78));
#149 = CARTESIAN_POINT('',(11.259276795278,-0.585706670327,7.78));
#150 = CARTESIAN_POINT('',(11.022682948778,-0.122155824472,7.78));
#151 = CARTESIAN_POINT('',(10.718212067895,0.295792077951,7.78));
#152 = CARTESIAN_POINT('',(9.995792077951,1.018212067895,7.78));
#153 = CARTESIAN_POINT('',(9.577844175528,1.322682948778,7.78));
#154 = CARTESIAN_POINT('',(9.114293329673,1.559276795278,7.78));
#155 = CARTESIAN_POINT('',(8.619216269896,1.71975962856,7.78));
#156 = CARTESIAN_POINT('',(8.108389049364,1.8,7.78));
#157 = CARTESIAN_POINT('',(7.59756097561,1.8,7.78));
#158 = AXIS1_PLACEMENT('',#159,#160);
#159 = CARTESIAN_POINT('',(3.75,-2.10243902439,7.78));
#160 = DIRECTION('',(-1.09450004193E-033,1.,-7.66150029351E-033));
#161 = ADVANCED_FACE('',(#162,#182),#252,.T.);
#162 = FACE_BOUND('',#163,.T.);
#163 = EDGE_LOOP('',(#164,#165,#174,#181));
#164 = ORIENTED_EDGE('',*,*,#31,.T.);
#165 = ORIENTED_EDGE('',*,*,#166,.T.);
#166 = EDGE_CURVE('',#24,#167,#169,.T.);
#167 = VERTEX_POINT('',#168);
#168 = CARTESIAN_POINT('',(7.59756097561,-6.2,7.78));
#169 = CIRCLE('',#170,3.90243902439);
#170 = AXIS2_PLACEMENT_3D('',#171,#172,#173);
#171 = CARTESIAN_POINT('',(7.59756097561,-2.29756097561,7.78));
#172 = DIRECTION('',(-3.857875836228E-033,-7.66150029351E-033,-1.));
#173 = DIRECTION('',(1.,1.09450004193E-033,-3.857875836228E-033));
#174 = ORIENTED_EDGE('',*,*,#175,.F.);
#175 = EDGE_CURVE('',#167,#167,#176,.T.);
#176 = CIRCLE('',#177,3.84756097561);
#177 = AXIS2_PLACEMENT_3D('',#178,#179,#180);
#178 = CARTESIAN_POINT('',(3.75,-6.2,7.78));
#179 = DIRECTION('',(1.09450004193E-033,-1.,7.66150029351E-033));
#180 = DIRECTION('',(1.,1.09450004193E-033,-3.857875836228E-033));
#181 = ORIENTED_EDGE('',*,*,#166,.F.);
#182 = FACE_BOUND('',#183,.T.);
#183 = EDGE_LOOP('',(#184,#205));
#184 = ORIENTED_EDGE('',*,*,#185,.T.);
#185 = EDGE_CURVE('',#186,#188,#190,.T.);
#186 = VERTEX_POINT('',#187);
#187 = CARTESIAN_POINT('',(7.86,-4.4,1.947381797763));
#188 = VERTEX_POINT('',#189);
#189 = CARTESIAN_POINT('',(7.476922434144,-4.040740447651,1.457705327949
));
#190 = B_SPLINE_CURVE_WITH_KNOTS('',7,(#191,#192,#193,#194,#195,#196,
#197,#198,#199,#200,#201,#202,#203,#204),.UNSPECIFIED.,.F.,.F.,(8,6,
8),(0.E+000,0.364958869894,1.),.UNSPECIFIED.);
#191 = CARTESIAN_POINT('',(7.86,-4.4,1.947381797763));
#192 = CARTESIAN_POINT('',(7.86,-4.369431389477,1.923467628081));
#193 = CARTESIAN_POINT('',(7.856971594493,-4.339176522803,1.898274500333
));
#194 = CARTESIAN_POINT('',(7.851027136601,-4.309513900752,1.872095169701
));
#195 = CARTESIAN_POINT('',(7.842281440993,-4.280696881833,1.845182904071
));
#196 = CARTESIAN_POINT('',(7.830852039607,-4.252961892088,1.81776192354)
);
#197 = CARTESIAN_POINT('',(7.816859437366,-4.22653663488,1.790037839937)
);
#198 = CARTESIAN_POINT('',(7.771834995355,-4.158341733346,1.713783374303
));
#199 = CARTESIAN_POINT('',(7.73589735881,-4.1197493279,1.665106933349));
#200 = CARTESIAN_POINT('',(7.693254824796,-4.08696665025,1.617132557399)
);
#201 = CARTESIAN_POINT('',(7.644620091606,-4.061288908294,1.570920136264
));
#202 = CARTESIAN_POINT('',(7.591087712825,-4.044177116625,1.527797823856
));
#203 = CARTESIAN_POINT('',(7.534392881871,-4.037048748896,1.489443959915
));
#204 = CARTESIAN_POINT('',(7.476922434144,-4.040740447651,1.457705327949
));
#205 = ORIENTED_EDGE('',*,*,#206,.T.);
#206 = EDGE_CURVE('',#188,#186,#207,.T.);
#207 = B_SPLINE_CURVE_WITH_KNOTS('',7,(#208,#209,#210,#211,#212,#213,
#214,#215,#216,#217,#218,#219,#220,#221,#222,#223,#224,#225,#226,
#227,#228,#229,#230,#231,#232,#233,#234,#235,#236,#237,#238,#239,
#240,#241,#242,#243,#244,#245,#246,#247,#248,#249,#250,#251),
.UNSPECIFIED.,.F.,.F.,(8,6,6,6,6,6,6,8),(0.E+000,0.147224089962,
0.256628765015,0.313308038649,0.484126606104,0.691549578306,
0.863844168501,1.),.UNSPECIFIED.);
#208 = CARTESIAN_POINT('',(7.476922434144,-4.040740447651,1.457705327949
));
#209 = CARTESIAN_POINT('',(7.440658910897,-4.043069888414,1.43767843302)
);
#210 = CARTESIAN_POINT('',(7.404125144256,-4.049705106498,1.420306642866
));
#211 = CARTESIAN_POINT('',(7.368049205683,-4.060829703177,1.406113149961
));
#212 = CARTESIAN_POINT('',(7.333246913028,-4.076446134698,1.39557718291)
);
#213 = CARTESIAN_POINT('',(7.300553193714,-4.096312514275,1.389074090254
));
#214 = CARTESIAN_POINT('',(7.270725564092,-4.119928227104,1.386802952902
));
#215 = CARTESIAN_POINT('',(7.224697105833,-4.166365083969,1.3901127345)
);
#216 = CARTESIAN_POINT('',(7.206952741769,-4.1878435084,1.393827338295)
);
#217 = CARTESIAN_POINT('',(7.191310194679,-4.210719484043,1.399826176527
));
#218 = CARTESIAN_POINT('',(7.17790636606,-4.234676264538,1.408019514333)
);
#219 = CARTESIAN_POINT('',(7.16679994055,-4.259400063058,1.418268568724)
);
#220 = CARTESIAN_POINT('',(7.157987097647,-4.284602100442,1.43040542936)
);
#221 = CARTESIAN_POINT('',(7.148024602695,-4.323199093658,1.451424844458
));
#222 = CARTESIAN_POINT('',(7.145228321334,-4.336432210155,1.459057589264
));
#223 = CARTESIAN_POINT('',(7.143029492483,-4.349692001494,1.467125646096
));
#224 = CARTESIAN_POINT('',(7.141419342952,-4.362946534223,1.47560433222)
);
#225 = CARTESIAN_POINT('',(7.140387149053,-4.376166450846,1.484468878472
));
#226 = CARTESIAN_POINT('',(7.139920904235,-4.389324988015,1.49369486383)
);
#227 = CARTESIAN_POINT('',(7.140270433742,-4.441797093077,1.532081747805
));
#228 = CARTESIAN_POINT('',(7.145558597444,-4.48039885949,1.563958046744)
);
#229 = CARTESIAN_POINT('',(7.155516427284,-4.517571905191,1.598255468965
));
#230 = CARTESIAN_POINT('',(7.16975903117,-4.552831838849,1.634372944276)
);
#231 = CARTESIAN_POINT('',(7.187927607894,-4.585798380551,1.671754003179
));
#232 = CARTESIAN_POINT('',(7.20971605711,-4.616143075134,1.709873411921)
);
#233 = CARTESIAN_POINT('',(7.265412512808,-4.67678031641,1.794732548002)
);
#234 = CARTESIAN_POINT('',(7.300848246218,-4.705593056541,1.84146398353)
);
#235 = CARTESIAN_POINT('',(7.340753069904,-4.729473744225,1.887541107084
));
#236 = CARTESIAN_POINT('',(7.384734606214,-4.747679854138,1.931871085699
));
#237 = CARTESIAN_POINT('',(7.432193809699,-4.759273109498,1.972977577273
));
#238 = CARTESIAN_POINT('',(7.482118451319,-4.76315165054,2.008933918843)
);
#239 = CARTESIAN_POINT('',(7.575052897151,-4.754626850503,2.061863548702
));
#240 = CARTESIAN_POINT('',(7.61788077116,-4.744862780703,2.081065088058)
);
#241 = CARTESIAN_POINT('',(7.659853477618,-4.728748698876,2.09400238267)
);
#242 = CARTESIAN_POINT('',(7.699354428532,-4.706434264061,2.099764011221
));
#243 = CARTESIAN_POINT('',(7.734931762855,-4.678699428933,2.098316342686
));
#244 = CARTESIAN_POINT('',(7.765583434153,-4.646788085689,2.090346782458
));
#245 = CARTESIAN_POINT('',(7.810823105746,-4.584763074671,2.06640184589)
);
#246 = CARTESIAN_POINT('',(7.827487959381,-4.555599353116,2.052426504289
));
#247 = CARTESIAN_POINT('',(7.840702839527,-4.525189921034,2.03550422034)
);
#248 = CARTESIAN_POINT('',(7.850465931995,-4.494037679371,2.016129197884
));
#249 = CARTESIAN_POINT('',(7.85685938595,-4.462570048787,1.994750270448)
);
#250 = CARTESIAN_POINT('',(7.86,-4.431130358008,1.971735428855));
#251 = CARTESIAN_POINT('',(7.86,-4.4,1.947381797763));
#252 = SURFACE_OF_REVOLUTION('',#253,#266);
#253 = B_SPLINE_CURVE_WITH_KNOTS('',6,(#254,#255,#256,#257,#258,#259,
#260,#261,#262,#263,#264,#265),.UNSPECIFIED.,.F.,.F.,(7,5,7),(
0.E+000,0.785398163397,1.570796326795),.UNSPECIFIED.);
#254 = CARTESIAN_POINT('',(11.5,-2.29756097561,7.78));
#255 = CARTESIAN_POINT('',(11.5,-2.808389049364,7.78));
#256 = CARTESIAN_POINT('',(11.41975962856,-3.319216269896,7.78));
#257 = CARTESIAN_POINT('',(11.259276795278,-3.814293329673,7.78));
#258 = CARTESIAN_POINT('',(11.022682948778,-4.277844175528,7.78));
#259 = CARTESIAN_POINT('',(10.718212067895,-4.695792077951,7.78));
#260 = CARTESIAN_POINT('',(9.995792077951,-5.418212067895,7.78));
#261 = CARTESIAN_POINT('',(9.577844175528,-5.722682948778,7.78));
#262 = CARTESIAN_POINT('',(9.114293329673,-5.959276795278,7.78));
#263 = CARTESIAN_POINT('',(8.619216269896,-6.11975962856,7.78));
#264 = CARTESIAN_POINT('',(8.108389049364,-6.2,7.78));
#265 = CARTESIAN_POINT('',(7.59756097561,-6.2,7.78));
#266 = AXIS1_PLACEMENT('',#267,#268);
#267 = CARTESIAN_POINT('',(3.75,-2.29756097561,7.78));
#268 = DIRECTION('',(1.09450004193E-033,-1.,7.66150029351E-033));
#269 = ADVANCED_FACE('',(#270),#273,.F.);
#270 = FACE_BOUND('',#271,.F.);
#271 = EDGE_LOOP('',(#272));
#272 = ORIENTED_EDGE('',*,*,#64,.T.);
#273 = PLANE('',#274);
#274 = AXIS2_PLACEMENT_3D('',#275,#276,#277);
#275 = CARTESIAN_POINT('',(3.75,1.8,7.78));
#276 = DIRECTION('',(1.09450004193E-033,-1.,7.66150029351E-033));
#277 = DIRECTION('',(0.E+000,-7.66150029351E-033,-1.));
#278 = ADVANCED_FACE('',(#279),#299,.T.);
#279 = FACE_BOUND('',#280,.T.);
#280 = EDGE_LOOP('',(#281,#282,#290,#297,#298));
#281 = ORIENTED_EDGE('',*,*,#98,.T.);
#282 = ORIENTED_EDGE('',*,*,#283,.T.);
#283 = EDGE_CURVE('',#75,#284,#286,.T.);
#284 = VERTEX_POINT('',#285);
#285 = CARTESIAN_POINT('',(0.36,0.E+000,-2.856));
#286 = LINE('',#287,#288);
#287 = CARTESIAN_POINT('',(0.36,0.E+000,7.78));
#288 = VECTOR('',#289,1.);
#289 = DIRECTION('',(-0.E+000,-0.E+000,-1.));
#290 = ORIENTED_EDGE('',*,*,#291,.T.);
#291 = EDGE_CURVE('',#284,#284,#292,.T.);
#292 = CIRCLE('',#293,0.36);
#293 = AXIS2_PLACEMENT_3D('',#294,#295,#296);
#294 = CARTESIAN_POINT('',(0.E+000,0.E+000,-2.856));
#295 = DIRECTION('',(0.E+000,0.E+000,1.));
#296 = DIRECTION('',(1.,0.E+000,0.E+000));
#297 = ORIENTED_EDGE('',*,*,#283,.F.);
#298 = ORIENTED_EDGE('',*,*,#74,.T.);
#299 = CYLINDRICAL_SURFACE('',#300,0.36);
#300 = AXIS2_PLACEMENT_3D('',#301,#302,#303);
#301 = CARTESIAN_POINT('',(0.E+000,0.E+000,7.78));
#302 = DIRECTION('',(0.E+000,0.E+000,1.));
#303 = DIRECTION('',(1.,0.E+000,0.E+000));
#304 = ADVANCED_FACE('',(#305),#308,.T.);
#305 = FACE_BOUND('',#306,.T.);
#306 = EDGE_LOOP('',(#307));
#307 = ORIENTED_EDGE('',*,*,#175,.T.);
#308 = PLANE('',#309);
#309 = AXIS2_PLACEMENT_3D('',#310,#311,#312);
#310 = CARTESIAN_POINT('',(3.75,-6.2,7.78));
#311 = DIRECTION('',(1.09450004193E-033,-1.,7.66150029351E-033));
#312 = DIRECTION('',(0.E+000,-7.66150029351E-033,-1.));
#313 = ADVANCED_FACE('',(#314),#334,.T.);
#314 = FACE_BOUND('',#315,.T.);
#315 = EDGE_LOOP('',(#316,#317,#325,#332,#333));
#316 = ORIENTED_EDGE('',*,*,#185,.F.);
#317 = ORIENTED_EDGE('',*,*,#318,.T.);
#318 = EDGE_CURVE('',#186,#319,#321,.T.);
#319 = VERTEX_POINT('',#320);
#320 = CARTESIAN_POINT('',(7.86,-4.4,-2.856));
#321 = LINE('',#322,#323);
#322 = CARTESIAN_POINT('',(7.86,-4.4,7.78));
#323 = VECTOR('',#324,1.);
#324 = DIRECTION('',(-0.E+000,-0.E+000,-1.));
#325 = ORIENTED_EDGE('',*,*,#326,.T.);
#326 = EDGE_CURVE('',#319,#319,#327,.T.);
#327 = CIRCLE('',#328,0.36);
#328 = AXIS2_PLACEMENT_3D('',#329,#330,#331);
#329 = CARTESIAN_POINT('',(7.5,-4.4,-2.856));
#330 = DIRECTION('',(0.E+000,0.E+000,1.));
#331 = DIRECTION('',(1.,0.E+000,0.E+000));
#332 = ORIENTED_EDGE('',*,*,#318,.F.);
#333 = ORIENTED_EDGE('',*,*,#206,.F.);
#334 = CYLINDRICAL_SURFACE('',#335,0.36);
#335 = AXIS2_PLACEMENT_3D('',#336,#337,#338);
#336 = CARTESIAN_POINT('',(7.5,-4.4,7.78));
#337 = DIRECTION('',(0.E+000,0.E+000,1.));
#338 = DIRECTION('',(1.,0.E+000,0.E+000));
#339 = ADVANCED_FACE('',(#340),#360,.T.);
#340 = FACE_BOUND('',#341,.F.);
#341 = EDGE_LOOP('',(#342,#351,#352,#353));
#342 = ORIENTED_EDGE('',*,*,#343,.F.);
#343 = EDGE_CURVE('',#284,#344,#346,.T.);
#344 = VERTEX_POINT('',#345);
#345 = CARTESIAN_POINT('',(0.216,0.E+000,-3.));
#346 = CIRCLE('',#347,0.144);
#347 = AXIS2_PLACEMENT_3D('',#348,#349,#350);
#348 = CARTESIAN_POINT('',(0.216,0.E+000,-2.856));
#349 = DIRECTION('',(-0.E+000,1.,0.E+000));
#350 = DIRECTION('',(1.,0.E+000,0.E+000));
#351 = ORIENTED_EDGE('',*,*,#291,.T.);
#352 = ORIENTED_EDGE('',*,*,#343,.T.);
#353 = ORIENTED_EDGE('',*,*,#354,.F.);
#354 = EDGE_CURVE('',#344,#344,#355,.T.);
#355 = CIRCLE('',#356,0.216);
#356 = AXIS2_PLACEMENT_3D('',#357,#358,#359);
#357 = CARTESIAN_POINT('',(0.E+000,0.E+000,-3.));
#358 = DIRECTION('',(0.E+000,0.E+000,1.));
#359 = DIRECTION('',(1.,0.E+000,0.E+000));
#360 = TOROIDAL_SURFACE('',#361,0.216,0.144);
#361 = AXIS2_PLACEMENT_3D('',#362,#363,#364);
#362 = CARTESIAN_POINT('',(0.E+000,0.E+000,-2.856));
#363 = DIRECTION('',(-0.E+000,-0.E+000,-1.));
#364 = DIRECTION('',(1.,0.E+000,0.E+000));
#365 = ADVANCED_FACE('',(#366),#386,.T.);
#366 = FACE_BOUND('',#367,.F.);
#367 = EDGE_LOOP('',(#368,#377,#378,#379));
#368 = ORIENTED_EDGE('',*,*,#369,.F.);
#369 = EDGE_CURVE('',#319,#370,#372,.T.);
#370 = VERTEX_POINT('',#371);
#371 = CARTESIAN_POINT('',(7.716,-4.4,-3.));
#372 = CIRCLE('',#373,0.144);
#373 = AXIS2_PLACEMENT_3D('',#374,#375,#376);
#374 = CARTESIAN_POINT('',(7.716,-4.4,-2.856));
#375 = DIRECTION('',(-0.E+000,1.,0.E+000));
#376 = DIRECTION('',(1.,0.E+000,0.E+000));
#377 = ORIENTED_EDGE('',*,*,#326,.T.);
#378 = ORIENTED_EDGE('',*,*,#369,.T.);
#379 = ORIENTED_EDGE('',*,*,#380,.F.);
#380 = EDGE_CURVE('',#370,#370,#381,.T.);
#381 = CIRCLE('',#382,0.216);
#382 = AXIS2_PLACEMENT_3D('',#383,#384,#385);
#383 = CARTESIAN_POINT('',(7.5,-4.4,-3.));
#384 = DIRECTION('',(0.E+000,0.E+000,1.));
#385 = DIRECTION('',(1.,0.E+000,0.E+000));
#386 = TOROIDAL_SURFACE('',#387,0.216,0.144);
#387 = AXIS2_PLACEMENT_3D('',#388,#389,#390);
#388 = CARTESIAN_POINT('',(7.5,-4.4,-2.856));
#389 = DIRECTION('',(-0.E+000,-0.E+000,-1.));
#390 = DIRECTION('',(1.,0.E+000,0.E+000));
#391 = ADVANCED_FACE('',(#392),#395,.F.);
#392 = FACE_BOUND('',#393,.F.);
#393 = EDGE_LOOP('',(#394));
#394 = ORIENTED_EDGE('',*,*,#354,.T.);
#395 = PLANE('',#396);
#396 = AXIS2_PLACEMENT_3D('',#397,#398,#399);
#397 = CARTESIAN_POINT('',(-1.483767504926E-017,1.497958850874E-017,-3.)
);
#398 = DIRECTION('',(0.E+000,0.E+000,1.));
#399 = DIRECTION('',(1.,0.E+000,0.E+000));
#400 = ADVANCED_FACE('',(#401),#404,.F.);
#401 = FACE_BOUND('',#402,.F.);
#402 = EDGE_LOOP('',(#403));
#403 = ORIENTED_EDGE('',*,*,#380,.T.);
#404 = PLANE('',#405);
#405 = AXIS2_PLACEMENT_3D('',#406,#407,#408);
#406 = CARTESIAN_POINT('',(7.5,-4.4,-3.));
#407 = DIRECTION('',(0.E+000,0.E+000,1.));
#408 = DIRECTION('',(1.,0.E+000,0.E+000));
#409 = ( GEOMETRIC_REPRESENTATION_CONTEXT(3)
GLOBAL_UNCERTAINTY_ASSIGNED_CONTEXT((#413)) GLOBAL_UNIT_ASSIGNED_CONTEXT
((#410,#411,#412)) REPRESENTATION_CONTEXT('Context #1',
'3D Context with UNIT and UNCERTAINTY') );
#410 = ( LENGTH_UNIT() NAMED_UNIT(*) SI_UNIT(.MILLI.,.METRE.) );
#411 = ( NAMED_UNIT(*) PLANE_ANGLE_UNIT() SI_UNIT($,.RADIAN.) );
#412 = ( NAMED_UNIT(*) SI_UNIT($,.STERADIAN.) SOLID_ANGLE_UNIT() );
#413 = UNCERTAINTY_MEASURE_WITH_UNIT(LENGTH_MEASURE(1.E-007),#410,
'distance_accuracy_value','confusion accuracy');
#414 = PRODUCT_RELATED_PRODUCT_CATEGORY('part',$,(#7));
#415 = MECHANICAL_DESIGN_GEOMETRIC_PRESENTATION_REPRESENTATION('',(#416,
#424,#431,#438,#445,#453,#460,#467,#474,#481,#488),#409);
#416 = STYLED_ITEM('color',(#417),#17);
#417 = PRESENTATION_STYLE_ASSIGNMENT((#418));
#418 = SURFACE_STYLE_USAGE(.BOTH.,#419);
#419 = SURFACE_SIDE_STYLE('',(#420));
#420 = SURFACE_STYLE_FILL_AREA(#421);
#421 = FILL_AREA_STYLE('',(#422));
#422 = FILL_AREA_STYLE_COLOUR('',#423);
#423 = COLOUR_RGB('',0.136999994516,0.402000010014,0.726999998093);
#424 = STYLED_ITEM('color',(#425),#50);
#425 = PRESENTATION_STYLE_ASSIGNMENT((#426));
#426 = SURFACE_STYLE_USAGE(.BOTH.,#427);
#427 = SURFACE_SIDE_STYLE('',(#428));
#428 = SURFACE_STYLE_FILL_AREA(#429);
#429 = FILL_AREA_STYLE('',(#430));
#430 = FILL_AREA_STYLE_COLOUR('',#423);
#431 = STYLED_ITEM('color',(#432),#161);
#432 = PRESENTATION_STYLE_ASSIGNMENT((#433));
#433 = SURFACE_STYLE_USAGE(.BOTH.,#434);
#434 = SURFACE_SIDE_STYLE('',(#435));
#435 = SURFACE_STYLE_FILL_AREA(#436);
#436 = FILL_AREA_STYLE('',(#437));
#437 = FILL_AREA_STYLE_COLOUR('',#423);
#438 = STYLED_ITEM('color',(#439),#269);
#439 = PRESENTATION_STYLE_ASSIGNMENT((#440));
#440 = SURFACE_STYLE_USAGE(.BOTH.,#441);
#441 = SURFACE_SIDE_STYLE('',(#442));
#442 = SURFACE_STYLE_FILL_AREA(#443);
#443 = FILL_AREA_STYLE('',(#444));
#444 = FILL_AREA_STYLE_COLOUR('',#423);
#445 = STYLED_ITEM('color',(#446),#278);
#446 = PRESENTATION_STYLE_ASSIGNMENT((#447));
#447 = SURFACE_STYLE_USAGE(.BOTH.,#448);
#448 = SURFACE_SIDE_STYLE('',(#449));
#449 = SURFACE_STYLE_FILL_AREA(#450);
#450 = FILL_AREA_STYLE('',(#451));
#451 = FILL_AREA_STYLE_COLOUR('',#452);
#452 = COLOUR_RGB('',0.824000000954,0.819999992847,0.78100001812);
#453 = STYLED_ITEM('color',(#454),#304);
#454 = PRESENTATION_STYLE_ASSIGNMENT((#455));
#455 = SURFACE_STYLE_USAGE(.BOTH.,#456);
#456 = SURFACE_SIDE_STYLE('',(#457));
#457 = SURFACE_STYLE_FILL_AREA(#458);
#458 = FILL_AREA_STYLE('',(#459));
#459 = FILL_AREA_STYLE_COLOUR('',#423);
#460 = STYLED_ITEM('color',(#461),#313);
#461 = PRESENTATION_STYLE_ASSIGNMENT((#462));
#462 = SURFACE_STYLE_USAGE(.BOTH.,#463);
#463 = SURFACE_SIDE_STYLE('',(#464));
#464 = SURFACE_STYLE_FILL_AREA(#465);
#465 = FILL_AREA_STYLE('',(#466));
#466 = FILL_AREA_STYLE_COLOUR('',#452);
#467 = STYLED_ITEM('color',(#468),#339);
#468 = PRESENTATION_STYLE_ASSIGNMENT((#469));
#469 = SURFACE_STYLE_USAGE(.BOTH.,#470);
#470 = SURFACE_SIDE_STYLE('',(#471));
#471 = SURFACE_STYLE_FILL_AREA(#472);
#472 = FILL_AREA_STYLE('',(#473));
#473 = FILL_AREA_STYLE_COLOUR('',#452);
#474 = STYLED_ITEM('color',(#475),#365);
#475 = PRESENTATION_STYLE_ASSIGNMENT((#476));
#476 = SURFACE_STYLE_USAGE(.BOTH.,#477);
#477 = SURFACE_SIDE_STYLE('',(#478));
#478 = SURFACE_STYLE_FILL_AREA(#479);
#479 = FILL_AREA_STYLE('',(#480));
#480 = FILL_AREA_STYLE_COLOUR('',#452);
#481 = STYLED_ITEM('color',(#482),#391);
#482 = PRESENTATION_STYLE_ASSIGNMENT((#483));
#483 = SURFACE_STYLE_USAGE(.BOTH.,#484);
#484 = SURFACE_SIDE_STYLE('',(#485));
#485 = SURFACE_STYLE_FILL_AREA(#486);
#486 = FILL_AREA_STYLE('',(#487));
#487 = FILL_AREA_STYLE_COLOUR('',#452);
#488 = STYLED_ITEM('color',(#489),#400);
#489 = PRESENTATION_STYLE_ASSIGNMENT((#490));
#490 = SURFACE_STYLE_USAGE(.BOTH.,#491);
#491 = SURFACE_SIDE_STYLE('',(#492));
#492 = SURFACE_STYLE_FILL_AREA(#493);
#493 = FILL_AREA_STYLE('',(#494));
#494 = FILL_AREA_STYLE_COLOUR('',#452);
ENDSEC;
END-ISO-10303-21;
