ISO-10303-21;
HEADER;
FILE_DESCRIPTION(('FreeCAD Model'),'2;1');
FILE_NAME(
'D:/KiCAD/packages3D-source/Diode_THT.3dshapes\\
Diode_Bridge_15.7x15.7x6.3mm_P10.8mm.step','2018-01-06T13:02:59',(
    'kicad StepUp'),('ksu MCAD'),'Open CASCADE STEP processor 6.8',
  'FreeCAD','Unknown');
FILE_SCHEMA(('AUTOMOTIVE_DESIGN_CC2 { 1 2 10303 214 -1 1 5 4 }'));
ENDSEC;
DATA;
#1 = APPLICATION_PROTOCOL_DEFINITION('committee draft',
  'automotive_design',1997,#2);
#2 = APPLICATION_CONTEXT(
  'core data for automotive mechanical design processes');
#3 = SHAPE_DEFINITION_REPRESENTATION(#4,#10);
#4 = PRODUCT_DEFINITION_SHAPE('','',#5);
#5 = PRODUCT_DEFINITION('design','',#6,#9);
#6 = PRODUCT_DEFINITION_FORMATION('','',#7);
#7 = PRODUCT('Diode_Bridge_15.7x15.7x6.3mm_P10.8mm',
  'Diode_Bridge_15.7x15.7x6.3mm_P10.8mm','',(#8));
#8 = MECHANICAL_CONTEXT('',#2,'mechanical');
#9 = PRODUCT_DEFINITION_CONTEXT('part definition',#2,'design');
#10 = ADVANCED_BREP_SHAPE_REPRESENTATION('',(#11,#15),#378);
#11 = AXIS2_PLACEMENT_3D('',#12,#13,#14);
#12 = CARTESIAN_POINT('',(0.E+000,0.E+000,0.E+000));
#13 = DIRECTION('',(0.E+000,0.E+000,1.));
#14 = DIRECTION('',(1.,0.E+000,-0.E+000));
#15 = MANIFOLD_SOLID_BREP('',#16);
#16 = CLOSED_SHELL('',(#17,#57,#88,#119,#188,#213,#230,#242,#267,#292,
    #317,#342,#351,#360,#369));
#17 = ADVANCED_FACE('',(#18),#52,.T.);
#18 = FACE_BOUND('',#19,.T.);
#19 = EDGE_LOOP('',(#20,#30,#38,#46));
#20 = ORIENTED_EDGE('',*,*,#21,.T.);
#21 = EDGE_CURVE('',#22,#24,#26,.T.);
#22 = VERTEX_POINT('',#23);
#23 = CARTESIAN_POINT('',(-2.45,0.45,0.1));
#24 = VERTEX_POINT('',#25);
#25 = CARTESIAN_POINT('',(-2.45,0.45,6.4));
#26 = LINE('',#27,#28);
#27 = CARTESIAN_POINT('',(-2.45,0.45,0.1));
#28 = VECTOR('',#29,1.);
#29 = DIRECTION('',(0.E+000,0.E+000,1.));
#30 = ORIENTED_EDGE('',*,*,#31,.T.);
#31 = EDGE_CURVE('',#24,#32,#34,.T.);
#32 = VERTEX_POINT('',#33);
#33 = CARTESIAN_POINT('',(-0.450000000001,2.45,6.4));
#34 = LINE('',#35,#36);
#35 = CARTESIAN_POINT('',(-2.45,0.45,6.4));
#36 = VECTOR('',#37,1.);
#37 = DIRECTION('',(0.707106781186,0.707106781187,0.E+000));
#38 = ORIENTED_EDGE('',*,*,#39,.F.);
#39 = EDGE_CURVE('',#40,#32,#42,.T.);
#40 = VERTEX_POINT('',#41);
#41 = CARTESIAN_POINT('',(-0.450000000001,2.45,0.1));
#42 = LINE('',#43,#44);
#43 = CARTESIAN_POINT('',(-0.450000000001,2.45,0.1));
#44 = VECTOR('',#45,1.);
#45 = DIRECTION('',(0.E+000,0.E+000,1.));
#46 = ORIENTED_EDGE('',*,*,#47,.F.);
#47 = EDGE_CURVE('',#22,#40,#48,.T.);
#48 = LINE('',#49,#50);
#49 = CARTESIAN_POINT('',(-2.45,0.45,0.1));
#50 = VECTOR('',#51,1.);
#51 = DIRECTION('',(0.707106781186,0.707106781187,0.E+000));
#52 = PLANE('',#53);
#53 = AXIS2_PLACEMENT_3D('',#54,#55,#56);
#54 = CARTESIAN_POINT('',(-2.45,0.45,0.1));
#55 = DIRECTION('',(-0.707106781187,0.707106781186,0.E+000));
#56 = DIRECTION('',(0.707106781186,0.707106781187,0.E+000));
#57 = ADVANCED_FACE('',(#58),#83,.T.);
#58 = FACE_BOUND('',#59,.T.);
#59 = EDGE_LOOP('',(#60,#70,#76,#77));
#60 = ORIENTED_EDGE('',*,*,#61,.T.);
#61 = EDGE_CURVE('',#62,#64,#66,.T.);
#62 = VERTEX_POINT('',#63);
#63 = CARTESIAN_POINT('',(-2.45,-13.25,0.1));
#64 = VERTEX_POINT('',#65);
#65 = CARTESIAN_POINT('',(-2.45,-13.25,6.4));
#66 = LINE('',#67,#68);
#67 = CARTESIAN_POINT('',(-2.45,-13.25,0.1));
#68 = VECTOR('',#69,1.);
#69 = DIRECTION('',(0.E+000,0.E+000,1.));
#70 = ORIENTED_EDGE('',*,*,#71,.T.);
#71 = EDGE_CURVE('',#64,#24,#72,.T.);
#72 = LINE('',#73,#74);
#73 = CARTESIAN_POINT('',(-2.45,-13.25,6.4));
#74 = VECTOR('',#75,1.);
#75 = DIRECTION('',(0.E+000,1.,0.E+000));
#76 = ORIENTED_EDGE('',*,*,#21,.F.);
#77 = ORIENTED_EDGE('',*,*,#78,.F.);
#78 = EDGE_CURVE('',#62,#22,#79,.T.);
#79 = LINE('',#80,#81);
#80 = CARTESIAN_POINT('',(-2.45,-13.25,0.1));
#81 = VECTOR('',#82,1.);
#82 = DIRECTION('',(0.E+000,1.,0.E+000));
#83 = PLANE('',#84);
#84 = AXIS2_PLACEMENT_3D('',#85,#86,#87);
#85 = CARTESIAN_POINT('',(-2.45,-13.25,0.1));
#86 = DIRECTION('',(-1.,0.E+000,0.E+000));
#87 = DIRECTION('',(0.E+000,1.,0.E+000));
#88 = ADVANCED_FACE('',(#89),#114,.T.);
#89 = FACE_BOUND('',#90,.T.);
#90 = EDGE_LOOP('',(#91,#92,#100,#108));
#91 = ORIENTED_EDGE('',*,*,#39,.T.);
#92 = ORIENTED_EDGE('',*,*,#93,.T.);
#93 = EDGE_CURVE('',#32,#94,#96,.T.);
#94 = VERTEX_POINT('',#95);
#95 = CARTESIAN_POINT('',(13.25,2.45,6.4));
#96 = LINE('',#97,#98);
#97 = CARTESIAN_POINT('',(-0.450000000001,2.45,6.4));
#98 = VECTOR('',#99,1.);
#99 = DIRECTION('',(1.,0.E+000,0.E+000));
#100 = ORIENTED_EDGE('',*,*,#101,.F.);
#101 = EDGE_CURVE('',#102,#94,#104,.T.);
#102 = VERTEX_POINT('',#103);
#103 = CARTESIAN_POINT('',(13.25,2.45,0.1));
#104 = LINE('',#105,#106);
#105 = CARTESIAN_POINT('',(13.25,2.45,0.1));
#106 = VECTOR('',#107,1.);
#107 = DIRECTION('',(0.E+000,0.E+000,1.));
#108 = ORIENTED_EDGE('',*,*,#109,.F.);
#109 = EDGE_CURVE('',#40,#102,#110,.T.);
#110 = LINE('',#111,#112);
#111 = CARTESIAN_POINT('',(-0.450000000001,2.45,0.1));
#112 = VECTOR('',#113,1.);
#113 = DIRECTION('',(1.,0.E+000,0.E+000));
#114 = PLANE('',#115);
#115 = AXIS2_PLACEMENT_3D('',#116,#117,#118);
#116 = CARTESIAN_POINT('',(-0.450000000001,2.45,0.1));
#117 = DIRECTION('',(0.E+000,1.,0.E+000));
#118 = DIRECTION('',(1.,0.E+000,0.E+000));
#119 = ADVANCED_FACE('',(#120,#139,#150,#161,#172),#183,.F.);
#120 = FACE_BOUND('',#121,.F.);
#121 = EDGE_LOOP('',(#122,#123,#124,#132,#138));
#122 = ORIENTED_EDGE('',*,*,#47,.F.);
#123 = ORIENTED_EDGE('',*,*,#78,.F.);
#124 = ORIENTED_EDGE('',*,*,#125,.F.);
#125 = EDGE_CURVE('',#126,#62,#128,.T.);
#126 = VERTEX_POINT('',#127);
#127 = CARTESIAN_POINT('',(13.25,-13.25,0.1));
#128 = LINE('',#129,#130);
#129 = CARTESIAN_POINT('',(13.25,-13.25,0.1));
#130 = VECTOR('',#131,1.);
#131 = DIRECTION('',(-1.,0.E+000,0.E+000));
#132 = ORIENTED_EDGE('',*,*,#133,.F.);
#133 = EDGE_CURVE('',#102,#126,#134,.T.);
#134 = LINE('',#135,#136);
#135 = CARTESIAN_POINT('',(13.25,2.45,0.1));
#136 = VECTOR('',#137,1.);
#137 = DIRECTION('',(0.E+000,-1.,0.E+000));
#138 = ORIENTED_EDGE('',*,*,#109,.F.);
#139 = FACE_BOUND('',#140,.F.);
#140 = EDGE_LOOP('',(#141));
#141 = ORIENTED_EDGE('',*,*,#142,.F.);
#142 = EDGE_CURVE('',#143,#143,#145,.T.);
#143 = VERTEX_POINT('',#144);
#144 = CARTESIAN_POINT('',(11.25,0.E+000,1.E-001));
#145 = CIRCLE('',#146,0.45);
#146 = AXIS2_PLACEMENT_3D('',#147,#148,#149);
#147 = CARTESIAN_POINT('',(10.8,0.E+000,1.E-001));
#148 = DIRECTION('',(0.E+000,0.E+000,1.));
#149 = DIRECTION('',(1.,0.E+000,0.E+000));
#150 = FACE_BOUND('',#151,.F.);
#151 = EDGE_LOOP('',(#152));
#152 = ORIENTED_EDGE('',*,*,#153,.F.);
#153 = EDGE_CURVE('',#154,#154,#156,.T.);
#154 = VERTEX_POINT('',#155);
#155 = CARTESIAN_POINT('',(11.25,-10.8,1.E-001));
#156 = CIRCLE('',#157,0.45);
#157 = AXIS2_PLACEMENT_3D('',#158,#159,#160);
#158 = CARTESIAN_POINT('',(10.8,-10.8,1.E-001));
#159 = DIRECTION('',(0.E+000,0.E+000,1.));
#160 = DIRECTION('',(1.,0.E+000,0.E+000));
#161 = FACE_BOUND('',#162,.F.);
#162 = EDGE_LOOP('',(#163));
#163 = ORIENTED_EDGE('',*,*,#164,.F.);
#164 = EDGE_CURVE('',#165,#165,#167,.T.);
#165 = VERTEX_POINT('',#166);
#166 = CARTESIAN_POINT('',(0.45,-10.8,1.E-001));
#167 = CIRCLE('',#168,0.45);
#168 = AXIS2_PLACEMENT_3D('',#169,#170,#171);
#169 = CARTESIAN_POINT('',(0.E+000,-10.8,1.E-001));
#170 = DIRECTION('',(0.E+000,0.E+000,1.));
#171 = DIRECTION('',(1.,0.E+000,0.E+000));
#172 = FACE_BOUND('',#173,.F.);
#173 = EDGE_LOOP('',(#174));
#174 = ORIENTED_EDGE('',*,*,#175,.F.);
#175 = EDGE_CURVE('',#176,#176,#178,.T.);
#176 = VERTEX_POINT('',#177);
#177 = CARTESIAN_POINT('',(0.45,0.E+000,1.E-001));
#178 = CIRCLE('',#179,0.45);
#179 = AXIS2_PLACEMENT_3D('',#180,#181,#182);
#180 = CARTESIAN_POINT('',(0.E+000,0.E+000,1.E-001));
#181 = DIRECTION('',(0.E+000,0.E+000,1.));
#182 = DIRECTION('',(1.,0.E+000,0.E+000));
#183 = PLANE('',#184);
#184 = AXIS2_PLACEMENT_3D('',#185,#186,#187);
#185 = CARTESIAN_POINT('',(-2.45,0.45,0.1));
#186 = DIRECTION('',(0.E+000,0.E+000,1.));
#187 = DIRECTION('',(1.,0.E+000,0.E+000));
#188 = ADVANCED_FACE('',(#189),#208,.T.);
#189 = FACE_BOUND('',#190,.F.);
#190 = EDGE_LOOP('',(#191,#192,#193,#201,#207));
#191 = ORIENTED_EDGE('',*,*,#31,.T.);
#192 = ORIENTED_EDGE('',*,*,#93,.T.);
#193 = ORIENTED_EDGE('',*,*,#194,.T.);
#194 = EDGE_CURVE('',#94,#195,#197,.T.);
#195 = VERTEX_POINT('',#196);
#196 = CARTESIAN_POINT('',(13.25,-13.25,6.4));
#197 = LINE('',#198,#199);
#198 = CARTESIAN_POINT('',(13.25,2.45,6.4));
#199 = VECTOR('',#200,1.);
#200 = DIRECTION('',(0.E+000,-1.,0.E+000));
#201 = ORIENTED_EDGE('',*,*,#202,.T.);
#202 = EDGE_CURVE('',#195,#64,#203,.T.);
#203 = LINE('',#204,#205);
#204 = CARTESIAN_POINT('',(13.25,-13.25,6.4));
#205 = VECTOR('',#206,1.);
#206 = DIRECTION('',(-1.,0.E+000,0.E+000));
#207 = ORIENTED_EDGE('',*,*,#71,.T.);
#208 = PLANE('',#209);
#209 = AXIS2_PLACEMENT_3D('',#210,#211,#212);
#210 = CARTESIAN_POINT('',(-2.45,0.45,6.4));
#211 = DIRECTION('',(0.E+000,0.E+000,1.));
#212 = DIRECTION('',(1.,0.E+000,0.E+000));
#213 = ADVANCED_FACE('',(#214),#225,.T.);
#214 = FACE_BOUND('',#215,.T.);
#215 = EDGE_LOOP('',(#216,#222,#223,#224));
#216 = ORIENTED_EDGE('',*,*,#217,.T.);
#217 = EDGE_CURVE('',#126,#195,#218,.T.);
#218 = LINE('',#219,#220);
#219 = CARTESIAN_POINT('',(13.25,-13.25,0.1));
#220 = VECTOR('',#221,1.);
#221 = DIRECTION('',(0.E+000,0.E+000,1.));
#222 = ORIENTED_EDGE('',*,*,#202,.T.);
#223 = ORIENTED_EDGE('',*,*,#61,.F.);
#224 = ORIENTED_EDGE('',*,*,#125,.F.);
#225 = PLANE('',#226);
#226 = AXIS2_PLACEMENT_3D('',#227,#228,#229);
#227 = CARTESIAN_POINT('',(13.25,-13.25,0.1));
#228 = DIRECTION('',(0.E+000,-1.,0.E+000));
#229 = DIRECTION('',(-1.,0.E+000,0.E+000));
#230 = ADVANCED_FACE('',(#231),#237,.T.);
#231 = FACE_BOUND('',#232,.T.);
#232 = EDGE_LOOP('',(#233,#234,#235,#236));
#233 = ORIENTED_EDGE('',*,*,#101,.T.);
#234 = ORIENTED_EDGE('',*,*,#194,.T.);
#235 = ORIENTED_EDGE('',*,*,#217,.F.);
#236 = ORIENTED_EDGE('',*,*,#133,.F.);
#237 = PLANE('',#238);
#238 = AXIS2_PLACEMENT_3D('',#239,#240,#241);
#239 = CARTESIAN_POINT('',(13.25,2.45,0.1));
#240 = DIRECTION('',(1.,0.E+000,0.E+000));
#241 = DIRECTION('',(0.E+000,-1.,0.E+000));
#242 = ADVANCED_FACE('',(#243),#262,.T.);
#243 = FACE_BOUND('',#244,.T.);
#244 = EDGE_LOOP('',(#245,#246,#254,#261));
#245 = ORIENTED_EDGE('',*,*,#142,.F.);
#246 = ORIENTED_EDGE('',*,*,#247,.T.);
#247 = EDGE_CURVE('',#143,#248,#250,.T.);
#248 = VERTEX_POINT('',#249);
#249 = CARTESIAN_POINT('',(11.25,0.E+000,-9.));
#250 = LINE('',#251,#252);
#251 = CARTESIAN_POINT('',(11.25,0.E+000,1.));
#252 = VECTOR('',#253,1.);
#253 = DIRECTION('',(-0.E+000,-0.E+000,-1.));
#254 = ORIENTED_EDGE('',*,*,#255,.T.);
#255 = EDGE_CURVE('',#248,#248,#256,.T.);
#256 = CIRCLE('',#257,0.45);
#257 = AXIS2_PLACEMENT_3D('',#258,#259,#260);
#258 = CARTESIAN_POINT('',(10.8,0.E+000,-9.));
#259 = DIRECTION('',(0.E+000,0.E+000,1.));
#260 = DIRECTION('',(1.,0.E+000,0.E+000));
#261 = ORIENTED_EDGE('',*,*,#247,.F.);
#262 = CYLINDRICAL_SURFACE('',#263,0.45);
#263 = AXIS2_PLACEMENT_3D('',#264,#265,#266);
#264 = CARTESIAN_POINT('',(10.8,0.E+000,1.));
#265 = DIRECTION('',(0.E+000,0.E+000,1.));
#266 = DIRECTION('',(1.,0.E+000,0.E+000));
#267 = ADVANCED_FACE('',(#268),#287,.T.);
#268 = FACE_BOUND('',#269,.T.);
#269 = EDGE_LOOP('',(#270,#271,#279,#286));
#270 = ORIENTED_EDGE('',*,*,#153,.F.);
#271 = ORIENTED_EDGE('',*,*,#272,.T.);
#272 = EDGE_CURVE('',#154,#273,#275,.T.);
#273 = VERTEX_POINT('',#274);
#274 = CARTESIAN_POINT('',(11.25,-10.8,-9.));
#275 = LINE('',#276,#277);
#276 = CARTESIAN_POINT('',(11.25,-10.8,1.));
#277 = VECTOR('',#278,1.);
#278 = DIRECTION('',(-0.E+000,-0.E+000,-1.));
#279 = ORIENTED_EDGE('',*,*,#280,.T.);
#280 = EDGE_CURVE('',#273,#273,#281,.T.);
#281 = CIRCLE('',#282,0.45);
#282 = AXIS2_PLACEMENT_3D('',#283,#284,#285);
#283 = CARTESIAN_POINT('',(10.8,-10.8,-9.));
#284 = DIRECTION('',(0.E+000,0.E+000,1.));
#285 = DIRECTION('',(1.,0.E+000,0.E+000));
#286 = ORIENTED_EDGE('',*,*,#272,.F.);
#287 = CYLINDRICAL_SURFACE('',#288,0.45);
#288 = AXIS2_PLACEMENT_3D('',#289,#290,#291);
#289 = CARTESIAN_POINT('',(10.8,-10.8,1.));
#290 = DIRECTION('',(0.E+000,0.E+000,1.));
#291 = DIRECTION('',(1.,0.E+000,0.E+000));
#292 = ADVANCED_FACE('',(#293),#312,.T.);
#293 = FACE_BOUND('',#294,.T.);
#294 = EDGE_LOOP('',(#295,#296,#304,#311));
#295 = ORIENTED_EDGE('',*,*,#164,.F.);
#296 = ORIENTED_EDGE('',*,*,#297,.T.);
#297 = EDGE_CURVE('',#165,#298,#300,.T.);
#298 = VERTEX_POINT('',#299);
#299 = CARTESIAN_POINT('',(0.45,-10.8,-9.));
#300 = LINE('',#301,#302);
#301 = CARTESIAN_POINT('',(0.45,-10.8,1.));
#302 = VECTOR('',#303,1.);
#303 = DIRECTION('',(-0.E+000,-0.E+000,-1.));
#304 = ORIENTED_EDGE('',*,*,#305,.T.);
#305 = EDGE_CURVE('',#298,#298,#306,.T.);
#306 = CIRCLE('',#307,0.45);
#307 = AXIS2_PLACEMENT_3D('',#308,#309,#310);
#308 = CARTESIAN_POINT('',(0.E+000,-10.8,-9.));
#309 = DIRECTION('',(0.E+000,0.E+000,1.));
#310 = DIRECTION('',(1.,0.E+000,0.E+000));
#311 = ORIENTED_EDGE('',*,*,#297,.F.);
#312 = CYLINDRICAL_SURFACE('',#313,0.45);
#313 = AXIS2_PLACEMENT_3D('',#314,#315,#316);
#314 = CARTESIAN_POINT('',(0.E+000,-10.8,1.));
#315 = DIRECTION('',(0.E+000,0.E+000,1.));
#316 = DIRECTION('',(1.,0.E+000,0.E+000));
#317 = ADVANCED_FACE('',(#318),#337,.T.);
#318 = FACE_BOUND('',#319,.T.);
#319 = EDGE_LOOP('',(#320,#321,#329,#336));
#320 = ORIENTED_EDGE('',*,*,#175,.F.);
#321 = ORIENTED_EDGE('',*,*,#322,.T.);
#322 = EDGE_CURVE('',#176,#323,#325,.T.);
#323 = VERTEX_POINT('',#324);
#324 = CARTESIAN_POINT('',(0.45,0.E+000,-9.));
#325 = LINE('',#326,#327);
#326 = CARTESIAN_POINT('',(0.45,0.E+000,1.));
#327 = VECTOR('',#328,1.);
#328 = DIRECTION('',(-0.E+000,-0.E+000,-1.));
#329 = ORIENTED_EDGE('',*,*,#330,.T.);
#330 = EDGE_CURVE('',#323,#323,#331,.T.);
#331 = CIRCLE('',#332,0.45);
#332 = AXIS2_PLACEMENT_3D('',#333,#334,#335);
#333 = CARTESIAN_POINT('',(0.E+000,0.E+000,-9.));
#334 = DIRECTION('',(0.E+000,0.E+000,1.));
#335 = DIRECTION('',(1.,0.E+000,0.E+000));
#336 = ORIENTED_EDGE('',*,*,#322,.F.);
#337 = CYLINDRICAL_SURFACE('',#338,0.45);
#338 = AXIS2_PLACEMENT_3D('',#339,#340,#341);
#339 = CARTESIAN_POINT('',(0.E+000,0.E+000,1.));
#340 = DIRECTION('',(0.E+000,0.E+000,1.));
#341 = DIRECTION('',(1.,0.E+000,0.E+000));
#342 = ADVANCED_FACE('',(#343),#346,.T.);
#343 = FACE_BOUND('',#344,.F.);
#344 = EDGE_LOOP('',(#345));
#345 = ORIENTED_EDGE('',*,*,#255,.T.);
#346 = PLANE('',#347);
#347 = AXIS2_PLACEMENT_3D('',#348,#349,#350);
#348 = CARTESIAN_POINT('',(11.25,0.E+000,-9.));
#349 = DIRECTION('',(0.E+000,0.E+000,-1.));
#350 = DIRECTION('',(-1.,0.E+000,0.E+000));
#351 = ADVANCED_FACE('',(#352),#355,.T.);
#352 = FACE_BOUND('',#353,.F.);
#353 = EDGE_LOOP('',(#354));
#354 = ORIENTED_EDGE('',*,*,#280,.T.);
#355 = PLANE('',#356);
#356 = AXIS2_PLACEMENT_3D('',#357,#358,#359);
#357 = CARTESIAN_POINT('',(11.25,-10.8,-9.));
#358 = DIRECTION('',(0.E+000,0.E+000,-1.));
#359 = DIRECTION('',(-1.,0.E+000,0.E+000));
#360 = ADVANCED_FACE('',(#361),#364,.T.);
#361 = FACE_BOUND('',#362,.F.);
#362 = EDGE_LOOP('',(#363));
#363 = ORIENTED_EDGE('',*,*,#305,.T.);
#364 = PLANE('',#365);
#365 = AXIS2_PLACEMENT_3D('',#366,#367,#368);
#366 = CARTESIAN_POINT('',(0.45,-10.8,-9.));
#367 = DIRECTION('',(0.E+000,0.E+000,-1.));
#368 = DIRECTION('',(-1.,0.E+000,0.E+000));
#369 = ADVANCED_FACE('',(#370),#373,.T.);
#370 = FACE_BOUND('',#371,.F.);
#371 = EDGE_LOOP('',(#372));
#372 = ORIENTED_EDGE('',*,*,#330,.T.);
#373 = PLANE('',#374);
#374 = AXIS2_PLACEMENT_3D('',#375,#376,#377);
#375 = CARTESIAN_POINT('',(0.45,0.E+000,-9.));
#376 = DIRECTION('',(0.E+000,0.E+000,-1.));
#377 = DIRECTION('',(-1.,0.E+000,0.E+000));
#378 = ( GEOMETRIC_REPRESENTATION_CONTEXT(3) 
GLOBAL_UNCERTAINTY_ASSIGNED_CONTEXT((#382)) GLOBAL_UNIT_ASSIGNED_CONTEXT
((#379,#380,#381)) REPRESENTATION_CONTEXT('Context #1',
  '3D Context with UNIT and UNCERTAINTY') );
#379 = ( LENGTH_UNIT() NAMED_UNIT(*) SI_UNIT(.MILLI.,.METRE.) );
#380 = ( NAMED_UNIT(*) PLANE_ANGLE_UNIT() SI_UNIT($,.RADIAN.) );
#381 = ( NAMED_UNIT(*) SI_UNIT($,.STERADIAN.) SOLID_ANGLE_UNIT() );
#382 = UNCERTAINTY_MEASURE_WITH_UNIT(LENGTH_MEASURE(1.E-007),#379,
  'distance_accuracy_value','confusion accuracy');
#383 = PRODUCT_TYPE('part',$,(#7));
#384 = MECHANICAL_DESIGN_GEOMETRIC_PRESENTATION_REPRESENTATION('',(#385,
    #393,#400,#407,#414,#421,#428,#435,#443,#450,#457,#464,#471,#478,
    #485),#378);
#385 = STYLED_ITEM('color',(#386),#17);
#386 = PRESENTATION_STYLE_ASSIGNMENT((#387));
#387 = SURFACE_STYLE_USAGE(.BOTH.,#388);
#388 = SURFACE_SIDE_STYLE('',(#389));
#389 = SURFACE_STYLE_FILL_AREA(#390);
#390 = FILL_AREA_STYLE('',(#391));
#391 = FILL_AREA_STYLE_COLOUR('',#392);
#392 = COLOUR_RGB('',0.148000001907,0.144999995828,0.144999995828);
#393 = STYLED_ITEM('color',(#394),#57);
#394 = PRESENTATION_STYLE_ASSIGNMENT((#395));
#395 = SURFACE_STYLE_USAGE(.BOTH.,#396);
#396 = SURFACE_SIDE_STYLE('',(#397));
#397 = SURFACE_STYLE_FILL_AREA(#398);
#398 = FILL_AREA_STYLE('',(#399));
#399 = FILL_AREA_STYLE_COLOUR('',#392);
#400 = STYLED_ITEM('color',(#401),#88);
#401 = PRESENTATION_STYLE_ASSIGNMENT((#402));
#402 = SURFACE_STYLE_USAGE(.BOTH.,#403);
#403 = SURFACE_SIDE_STYLE('',(#404));
#404 = SURFACE_STYLE_FILL_AREA(#405);
#405 = FILL_AREA_STYLE('',(#406));
#406 = FILL_AREA_STYLE_COLOUR('',#392);
#407 = STYLED_ITEM('color',(#408),#119);
#408 = PRESENTATION_STYLE_ASSIGNMENT((#409));
#409 = SURFACE_STYLE_USAGE(.BOTH.,#410);
#410 = SURFACE_SIDE_STYLE('',(#411));
#411 = SURFACE_STYLE_FILL_AREA(#412);
#412 = FILL_AREA_STYLE('',(#413));
#413 = FILL_AREA_STYLE_COLOUR('',#392);
#414 = STYLED_ITEM('color',(#415),#188);
#415 = PRESENTATION_STYLE_ASSIGNMENT((#416));
#416 = SURFACE_STYLE_USAGE(.BOTH.,#417);
#417 = SURFACE_SIDE_STYLE('',(#418));
#418 = SURFACE_STYLE_FILL_AREA(#419);
#419 = FILL_AREA_STYLE('',(#420));
#420 = FILL_AREA_STYLE_COLOUR('',#392);
#421 = STYLED_ITEM('color',(#422),#213);
#422 = PRESENTATION_STYLE_ASSIGNMENT((#423));
#423 = SURFACE_STYLE_USAGE(.BOTH.,#424);
#424 = SURFACE_SIDE_STYLE('',(#425));
#425 = SURFACE_STYLE_FILL_AREA(#426);
#426 = FILL_AREA_STYLE('',(#427));
#427 = FILL_AREA_STYLE_COLOUR('',#392);
#428 = STYLED_ITEM('color',(#429),#230);
#429 = PRESENTATION_STYLE_ASSIGNMENT((#430));
#430 = SURFACE_STYLE_USAGE(.BOTH.,#431);
#431 = SURFACE_SIDE_STYLE('',(#432));
#432 = SURFACE_STYLE_FILL_AREA(#433);
#433 = FILL_AREA_STYLE('',(#434));
#434 = FILL_AREA_STYLE_COLOUR('',#392);
#435 = STYLED_ITEM('color',(#436),#242);
#436 = PRESENTATION_STYLE_ASSIGNMENT((#437));
#437 = SURFACE_STYLE_USAGE(.BOTH.,#438);
#438 = SURFACE_SIDE_STYLE('',(#439));
#439 = SURFACE_STYLE_FILL_AREA(#440);
#440 = FILL_AREA_STYLE('',(#441));
#441 = FILL_AREA_STYLE_COLOUR('',#442);
#442 = COLOUR_RGB('',0.824000000954,0.819999992847,0.78100001812);
#443 = STYLED_ITEM('color',(#444),#267);
#444 = PRESENTATION_STYLE_ASSIGNMENT((#445));
#445 = SURFACE_STYLE_USAGE(.BOTH.,#446);
#446 = SURFACE_SIDE_STYLE('',(#447));
#447 = SURFACE_STYLE_FILL_AREA(#448);
#448 = FILL_AREA_STYLE('',(#449));
#449 = FILL_AREA_STYLE_COLOUR('',#442);
#450 = STYLED_ITEM('color',(#451),#292);
#451 = PRESENTATION_STYLE_ASSIGNMENT((#452));
#452 = SURFACE_STYLE_USAGE(.BOTH.,#453);
#453 = SURFACE_SIDE_STYLE('',(#454));
#454 = SURFACE_STYLE_FILL_AREA(#455);
#455 = FILL_AREA_STYLE('',(#456));
#456 = FILL_AREA_STYLE_COLOUR('',#442);
#457 = STYLED_ITEM('color',(#458),#317);
#458 = PRESENTATION_STYLE_ASSIGNMENT((#459));
#459 = SURFACE_STYLE_USAGE(.BOTH.,#460);
#460 = SURFACE_SIDE_STYLE('',(#461));
#461 = SURFACE_STYLE_FILL_AREA(#462);
#462 = FILL_AREA_STYLE('',(#463));
#463 = FILL_AREA_STYLE_COLOUR('',#442);
#464 = STYLED_ITEM('color',(#465),#342);
#465 = PRESENTATION_STYLE_ASSIGNMENT((#466));
#466 = SURFACE_STYLE_USAGE(.BOTH.,#467);
#467 = SURFACE_SIDE_STYLE('',(#468));
#468 = SURFACE_STYLE_FILL_AREA(#469);
#469 = FILL_AREA_STYLE('',(#470));
#470 = FILL_AREA_STYLE_COLOUR('',#442);
#471 = STYLED_ITEM('color',(#472),#351);
#472 = PRESENTATION_STYLE_ASSIGNMENT((#473));
#473 = SURFACE_STYLE_USAGE(.BOTH.,#474);
#474 = SURFACE_SIDE_STYLE('',(#475));
#475 = SURFACE_STYLE_FILL_AREA(#476);
#476 = FILL_AREA_STYLE('',(#477));
#477 = FILL_AREA_STYLE_COLOUR('',#442);
#478 = STYLED_ITEM('color',(#479),#360);
#479 = PRESENTATION_STYLE_ASSIGNMENT((#480));
#480 = SURFACE_STYLE_USAGE(.BOTH.,#481);
#481 = SURFACE_SIDE_STYLE('',(#482));
#482 = SURFACE_STYLE_FILL_AREA(#483);
#483 = FILL_AREA_STYLE('',(#484));
#484 = FILL_AREA_STYLE_COLOUR('',#442);
#485 = STYLED_ITEM('color',(#486),#369);
#486 = PRESENTATION_STYLE_ASSIGNMENT((#487));
#487 = SURFACE_STYLE_USAGE(.BOTH.,#488);
#488 = SURFACE_SIDE_STYLE('',(#489));
#489 = SURFACE_STYLE_FILL_AREA(#490);
#490 = FILL_AREA_STYLE('',(#491));
#491 = FILL_AREA_STYLE_COLOUR('',#442);
ENDSEC;
END-ISO-10303-21;
