ISO-10303-21;
HEADER;
FILE_DESCRIPTION(('FreeCAD Model'),'2;1');
FILE_NAME(
'D:/KiCAD/packages3D-source/Diode_THT.3dshapes\\
D_DO-35_SOD27_P5.08mm_Vertical_AnodeUp.step','2017-11-23T22:07:20',(
    'kicad StepUp'),('ksu MCAD'),'Open CASCADE STEP processor 7.1',
  'FreeCAD','Unknown');
FILE_SCHEMA(('AUTOMOTIVE_DESIGN { 1 0 10303 214 1 1 1 1 }'));
ENDSEC;
DATA;
#1 = APPLICATION_PROTOCOL_DEFINITION('international standard',
  'automotive_design',2000,#2);
#2 = APPLICATION_CONTEXT(
  'core data for automotive mechanical design processes');
#3 = SHAPE_DEFINITION_REPRESENTATION(#4,#10);
#4 = PRODUCT_DEFINITION_SHAPE('','',#5);
#5 = PRODUCT_DEFINITION('design','',#6,#9);
#6 = PRODUCT_DEFINITION_FORMATION('','',#7);
#7 = PRODUCT('D_DO-35_SOD27_P5.08mm_Vertical_AnodeUp',
  'D_DO-35_SOD27_P5.08mm_Vertical_AnodeUp','',(#8));
#8 = PRODUCT_CONTEXT('',#2,'mechanical');
#9 = PRODUCT_DEFINITION_CONTEXT('part definition',#2,'design');
#10 = ADVANCED_BREP_SHAPE_REPRESENTATION('',(#11,#15),#402);
#11 = AXIS2_PLACEMENT_3D('',#12,#13,#14);
#12 = CARTESIAN_POINT('',(0.E+000,0.E+000,0.E+000));
#13 = DIRECTION('',(0.E+000,0.E+000,1.));
#14 = DIRECTION('',(1.,0.E+000,-0.E+000));
#15 = MANIFOLD_SOLID_BREP('',#16);
#16 = CLOSED_SHELL('',(#17,#34,#59,#79,#105,#130,#150,#175,#195,#220,
    #246,#266,#291,#317,#342,#368,#393));
#17 = ADVANCED_FACE('',(#18),#29,.T.);
#18 = FACE_BOUND('',#19,.F.);
#19 = EDGE_LOOP('',(#20));
#20 = ORIENTED_EDGE('',*,*,#21,.T.);
#21 = EDGE_CURVE('',#22,#22,#24,.T.);
#22 = VERTEX_POINT('',#23);
#23 = CARTESIAN_POINT('',(0.25,-7.273661547325E-016,-3.));
#24 = CIRCLE('',#25,0.25);
#25 = AXIS2_PLACEMENT_3D('',#26,#27,#28);
#26 = CARTESIAN_POINT('',(0.E+000,-6.661338147751E-016,-3.));
#27 = DIRECTION('',(-0.E+000,2.22044604925E-016,1.));
#28 = DIRECTION('',(1.,0.E+000,0.E+000));
#29 = PLANE('',#30);
#30 = AXIS2_PLACEMENT_3D('',#31,#32,#33);
#31 = CARTESIAN_POINT('',(0.25,-6.661338147751E-016,-3.));
#32 = DIRECTION('',(0.E+000,0.E+000,-1.));
#33 = DIRECTION('',(-1.,0.E+000,0.E+000));
#34 = ADVANCED_FACE('',(#35),#54,.T.);
#35 = FACE_BOUND('',#36,.T.);
#36 = EDGE_LOOP('',(#37,#38,#46,#53));
#37 = ORIENTED_EDGE('',*,*,#21,.T.);
#38 = ORIENTED_EDGE('',*,*,#39,.T.);
#39 = EDGE_CURVE('',#22,#40,#42,.T.);
#40 = VERTEX_POINT('',#41);
#41 = CARTESIAN_POINT('',(0.25,1.110223024625E-016,0.5));
#42 = LINE('',#43,#44);
#43 = CARTESIAN_POINT('',(0.25,-6.661338147751E-016,-3.));
#44 = VECTOR('',#45,1.);
#45 = DIRECTION('',(0.E+000,2.22044604925E-016,1.));
#46 = ORIENTED_EDGE('',*,*,#47,.F.);
#47 = EDGE_CURVE('',#40,#40,#48,.T.);
#48 = CIRCLE('',#49,0.25);
#49 = AXIS2_PLACEMENT_3D('',#50,#51,#52);
#50 = CARTESIAN_POINT('',(0.E+000,1.110223024625E-016,0.5));
#51 = DIRECTION('',(-0.E+000,2.22044604925E-016,1.));
#52 = DIRECTION('',(1.,0.E+000,0.E+000));
#53 = ORIENTED_EDGE('',*,*,#39,.F.);
#54 = CYLINDRICAL_SURFACE('',#55,0.25);
#55 = AXIS2_PLACEMENT_3D('',#56,#57,#58);
#56 = CARTESIAN_POINT('',(0.E+000,-6.661338147751E-016,-3.));
#57 = DIRECTION('',(0.E+000,2.22044604925E-016,1.));
#58 = DIRECTION('',(1.,0.E+000,0.E+000));
#59 = ADVANCED_FACE('',(#60,#71),#74,.T.);
#60 = FACE_BOUND('',#61,.T.);
#61 = EDGE_LOOP('',(#62));
#62 = ORIENTED_EDGE('',*,*,#63,.T.);
#63 = EDGE_CURVE('',#64,#64,#66,.T.);
#64 = VERTEX_POINT('',#65);
#65 = CARTESIAN_POINT('',(0.8,3.10862446895E-016,0.5));
#66 = CIRCLE('',#67,0.8);
#67 = AXIS2_PLACEMENT_3D('',#68,#69,#70);
#68 = CARTESIAN_POINT('',(0.E+000,2.22044604925E-016,0.5));
#69 = DIRECTION('',(0.E+000,-4.440892098501E-016,-1.));
#70 = DIRECTION('',(1.,1.110223024625E-016,-4.930380657631E-032));
#71 = FACE_BOUND('',#72,.T.);
#72 = EDGE_LOOP('',(#73));
#73 = ORIENTED_EDGE('',*,*,#47,.T.);
#74 = PLANE('',#75);
#75 = AXIS2_PLACEMENT_3D('',#76,#77,#78);
#76 = CARTESIAN_POINT('',(0.E+000,2.22044604925E-016,0.5));
#77 = DIRECTION('',(0.E+000,-4.440892098501E-016,-1.));
#78 = DIRECTION('',(1.,1.110223024625E-016,-4.930380657631E-032));
#79 = ADVANCED_FACE('',(#80),#100,.T.);
#80 = FACE_BOUND('',#81,.T.);
#81 = EDGE_LOOP('',(#82,#91,#98,#99));
#82 = ORIENTED_EDGE('',*,*,#83,.F.);
#83 = EDGE_CURVE('',#84,#64,#86,.T.);
#84 = VERTEX_POINT('',#85);
#85 = CARTESIAN_POINT('',(1.,4.218847493576E-016,0.7));
#86 = CIRCLE('',#87,0.2);
#87 = AXIS2_PLACEMENT_3D('',#88,#89,#90);
#88 = CARTESIAN_POINT('',(0.8,1.110223024625E-015,0.7));
#89 = DIRECTION('',(-9.992007221626E-016,1.,-4.440892098501E-016));
#90 = DIRECTION('',(1.,9.992007221626E-016,-4.437342591868E-031));
#91 = ORIENTED_EDGE('',*,*,#92,.T.);
#92 = EDGE_CURVE('',#84,#84,#93,.T.);
#93 = CIRCLE('',#94,1.);
#94 = AXIS2_PLACEMENT_3D('',#95,#96,#97);
#95 = CARTESIAN_POINT('',(0.E+000,3.10862446895E-016,0.7));
#96 = DIRECTION('',(0.E+000,-4.440892098501E-016,-1.));
#97 = DIRECTION('',(1.,1.110223024625E-016,-4.930380657631E-032));
#98 = ORIENTED_EDGE('',*,*,#83,.T.);
#99 = ORIENTED_EDGE('',*,*,#63,.F.);
#100 = TOROIDAL_SURFACE('',#101,0.8,0.2);
#101 = AXIS2_PLACEMENT_3D('',#102,#103,#104);
#102 = CARTESIAN_POINT('',(0.E+000,3.10862446895E-016,0.7));
#103 = DIRECTION('',(0.E+000,-4.440892098501E-016,-1.));
#104 = DIRECTION('',(1.,1.110223024625E-016,-4.930380657631E-032));
#105 = ADVANCED_FACE('',(#106),#125,.T.);
#106 = FACE_BOUND('',#107,.T.);
#107 = EDGE_LOOP('',(#108,#117,#123,#124));
#108 = ORIENTED_EDGE('',*,*,#109,.T.);
#109 = EDGE_CURVE('',#110,#110,#112,.T.);
#110 = VERTEX_POINT('',#111);
#111 = CARTESIAN_POINT('',(1.,7.327471962526E-016,1.1));
#112 = CIRCLE('',#113,1.);
#113 = AXIS2_PLACEMENT_3D('',#114,#115,#116);
#114 = CARTESIAN_POINT('',(0.E+000,4.884981308351E-016,1.1));
#115 = DIRECTION('',(0.E+000,-4.440892098501E-016,-1.));
#116 = DIRECTION('',(1.,9.992007221626E-016,-4.437342591868E-031));
#117 = ORIENTED_EDGE('',*,*,#118,.T.);
#118 = EDGE_CURVE('',#110,#84,#119,.T.);
#119 = LINE('',#120,#121);
#120 = CARTESIAN_POINT('',(1.,2.997602166488E-015,4.5));
#121 = VECTOR('',#122,1.);
#122 = DIRECTION('',(0.E+000,-6.661338147751E-016,-1.));
#123 = ORIENTED_EDGE('',*,*,#92,.F.);
#124 = ORIENTED_EDGE('',*,*,#118,.F.);
#125 = CYLINDRICAL_SURFACE('',#126,1.);
#126 = AXIS2_PLACEMENT_3D('',#127,#128,#129);
#127 = CARTESIAN_POINT('',(0.E+000,1.998401444325E-015,4.5));
#128 = DIRECTION('',(0.E+000,-4.440892098501E-016,-1.));
#129 = DIRECTION('',(1.,9.992007221626E-016,-4.437342591868E-031));
#130 = ADVANCED_FACE('',(#131,#142),#145,.T.);
#131 = FACE_BOUND('',#132,.F.);
#132 = EDGE_LOOP('',(#133));
#133 = ORIENTED_EDGE('',*,*,#134,.F.);
#134 = EDGE_CURVE('',#135,#135,#137,.T.);
#135 = VERTEX_POINT('',#136);
#136 = CARTESIAN_POINT('',(1.01,7.327471962526E-016,1.1));
#137 = CIRCLE('',#138,1.01);
#138 = AXIS2_PLACEMENT_3D('',#139,#140,#141);
#139 = CARTESIAN_POINT('',(0.E+000,4.884981308351E-016,1.1));
#140 = DIRECTION('',(0.E+000,-4.440892098501E-016,-1.));
#141 = DIRECTION('',(1.,2.418307578391E-016,-1.073944301662E-031));
#142 = FACE_BOUND('',#143,.F.);
#143 = EDGE_LOOP('',(#144));
#144 = ORIENTED_EDGE('',*,*,#109,.T.);
#145 = PLANE('',#146);
#146 = AXIS2_PLACEMENT_3D('',#147,#148,#149);
#147 = CARTESIAN_POINT('',(0.E+000,4.884981308351E-016,1.1));
#148 = DIRECTION('',(0.E+000,-4.440892098501E-016,-1.));
#149 = DIRECTION('',(1.,2.467162276945E-016,-1.09564014614E-031));
#150 = ADVANCED_FACE('',(#151),#170,.T.);
#151 = FACE_BOUND('',#152,.T.);
#152 = EDGE_LOOP('',(#153,#162,#168,#169));
#153 = ORIENTED_EDGE('',*,*,#154,.T.);
#154 = EDGE_CURVE('',#155,#155,#157,.T.);
#155 = VERTEX_POINT('',#156);
#156 = CARTESIAN_POINT('',(1.01,1.398881011028E-015,2.1));
#157 = CIRCLE('',#158,1.01);
#158 = AXIS2_PLACEMENT_3D('',#159,#160,#161);
#159 = CARTESIAN_POINT('',(0.E+000,9.325873406851E-016,2.1));
#160 = DIRECTION('',(0.E+000,-4.440892098501E-016,-1.));
#161 = DIRECTION('',(1.,4.616769013293E-016,-2.050257303173E-031));
#162 = ORIENTED_EDGE('',*,*,#163,.T.);
#163 = EDGE_CURVE('',#155,#135,#164,.T.);
#164 = LINE('',#165,#166);
#165 = CARTESIAN_POINT('',(1.01,1.398881011028E-015,2.1));
#166 = VECTOR('',#167,1.);
#167 = DIRECTION('',(0.E+000,-6.661338147751E-016,-1.));
#168 = ORIENTED_EDGE('',*,*,#134,.F.);
#169 = ORIENTED_EDGE('',*,*,#163,.F.);
#170 = CYLINDRICAL_SURFACE('',#171,1.01);
#171 = AXIS2_PLACEMENT_3D('',#172,#173,#174);
#172 = CARTESIAN_POINT('',(0.E+000,9.325873406851E-016,2.1));
#173 = DIRECTION('',(0.E+000,-4.440892098501E-016,-1.));
#174 = DIRECTION('',(1.,4.616769013293E-016,-2.050257303173E-031));
#175 = ADVANCED_FACE('',(#176,#179),#190,.F.);
#176 = FACE_BOUND('',#177,.T.);
#177 = EDGE_LOOP('',(#178));
#178 = ORIENTED_EDGE('',*,*,#154,.F.);
#179 = FACE_BOUND('',#180,.T.);
#180 = EDGE_LOOP('',(#181));
#181 = ORIENTED_EDGE('',*,*,#182,.T.);
#182 = EDGE_CURVE('',#183,#183,#185,.T.);
#183 = VERTEX_POINT('',#184);
#184 = CARTESIAN_POINT('',(1.,1.398881011028E-015,2.1));
#185 = CIRCLE('',#186,1.);
#186 = AXIS2_PLACEMENT_3D('',#187,#188,#189);
#187 = CARTESIAN_POINT('',(0.E+000,9.325873406851E-016,2.1));
#188 = DIRECTION('',(0.E+000,-4.440892098501E-016,-1.));
#189 = DIRECTION('',(1.,9.992007221626E-016,-4.437342591868E-031));
#190 = PLANE('',#191);
#191 = AXIS2_PLACEMENT_3D('',#192,#193,#194);
#192 = CARTESIAN_POINT('',(0.E+000,9.325873406851E-016,2.1));
#193 = DIRECTION('',(0.E+000,-4.440892098501E-016,-1.));
#194 = DIRECTION('',(1.,4.710037074167E-016,-2.091676642631E-031));
#195 = ADVANCED_FACE('',(#196),#215,.T.);
#196 = FACE_BOUND('',#197,.T.);
#197 = EDGE_LOOP('',(#198,#207,#213,#214));
#198 = ORIENTED_EDGE('',*,*,#199,.T.);
#199 = EDGE_CURVE('',#200,#200,#202,.T.);
#200 = VERTEX_POINT('',#201);
#201 = CARTESIAN_POINT('',(1.,2.908784324518E-015,4.3));
#202 = CIRCLE('',#203,1.);
#203 = AXIS2_PLACEMENT_3D('',#204,#205,#206);
#204 = CARTESIAN_POINT('',(0.E+000,1.909583602355E-015,4.3));
#205 = DIRECTION('',(0.E+000,-4.440892098501E-016,-1.));
#206 = DIRECTION('',(1.,9.992007221626E-016,-4.437342591868E-031));
#207 = ORIENTED_EDGE('',*,*,#208,.T.);
#208 = EDGE_CURVE('',#200,#183,#209,.T.);
#209 = LINE('',#210,#211);
#210 = CARTESIAN_POINT('',(1.,2.997602166488E-015,4.5));
#211 = VECTOR('',#212,1.);
#212 = DIRECTION('',(0.E+000,-6.661338147751E-016,-1.));
#213 = ORIENTED_EDGE('',*,*,#182,.F.);
#214 = ORIENTED_EDGE('',*,*,#208,.F.);
#215 = CYLINDRICAL_SURFACE('',#216,1.);
#216 = AXIS2_PLACEMENT_3D('',#217,#218,#219);
#217 = CARTESIAN_POINT('',(0.E+000,1.998401444325E-015,4.5));
#218 = DIRECTION('',(0.E+000,-4.440892098501E-016,-1.));
#219 = DIRECTION('',(1.,9.992007221626E-016,-4.437342591868E-031));
#220 = ADVANCED_FACE('',(#221),#241,.T.);
#221 = FACE_BOUND('',#222,.T.);
#222 = EDGE_LOOP('',(#223,#232,#239,#240));
#223 = ORIENTED_EDGE('',*,*,#224,.F.);
#224 = EDGE_CURVE('',#225,#200,#227,.T.);
#225 = VERTEX_POINT('',#226);
#226 = CARTESIAN_POINT('',(0.8,2.797762022055E-015,4.5));
#227 = CIRCLE('',#228,0.2);
#228 = AXIS2_PLACEMENT_3D('',#229,#230,#231);
#229 = CARTESIAN_POINT('',(0.8,2.708944180085E-015,4.3));
#230 = DIRECTION('',(-9.992007221626E-016,1.,-4.440892098501E-016));
#231 = DIRECTION('',(1.,9.992007221626E-016,-4.437342591868E-031));
#232 = ORIENTED_EDGE('',*,*,#233,.T.);
#233 = EDGE_CURVE('',#225,#225,#234,.T.);
#234 = CIRCLE('',#235,0.8);
#235 = AXIS2_PLACEMENT_3D('',#236,#237,#238);
#236 = CARTESIAN_POINT('',(0.E+000,1.998401444325E-015,4.5));
#237 = DIRECTION('',(0.E+000,-4.440892098501E-016,-1.));
#238 = DIRECTION('',(1.,9.992007221626E-016,-4.437342591868E-031));
#239 = ORIENTED_EDGE('',*,*,#224,.T.);
#240 = ORIENTED_EDGE('',*,*,#199,.F.);
#241 = TOROIDAL_SURFACE('',#242,0.8,0.2);
#242 = AXIS2_PLACEMENT_3D('',#243,#244,#245);
#243 = CARTESIAN_POINT('',(0.E+000,1.909583602355E-015,4.3));
#244 = DIRECTION('',(0.E+000,-4.440892098501E-016,-1.));
#245 = DIRECTION('',(1.,9.992007221626E-016,-4.437342591868E-031));
#246 = ADVANCED_FACE('',(#247,#250),#261,.F.);
#247 = FACE_BOUND('',#248,.T.);
#248 = EDGE_LOOP('',(#249));
#249 = ORIENTED_EDGE('',*,*,#233,.F.);
#250 = FACE_BOUND('',#251,.T.);
#251 = EDGE_LOOP('',(#252));
#252 = ORIENTED_EDGE('',*,*,#253,.F.);
#253 = EDGE_CURVE('',#254,#254,#256,.T.);
#254 = VERTEX_POINT('',#255);
#255 = CARTESIAN_POINT('',(0.25,9.992007221626E-016,4.5));
#256 = CIRCLE('',#257,0.25);
#257 = AXIS2_PLACEMENT_3D('',#258,#259,#260);
#258 = CARTESIAN_POINT('',(0.E+000,9.992007221626E-016,4.5));
#259 = DIRECTION('',(-0.E+000,2.22044604925E-016,1.));
#260 = DIRECTION('',(1.,0.E+000,0.E+000));
#261 = PLANE('',#262);
#262 = AXIS2_PLACEMENT_3D('',#263,#264,#265);
#263 = CARTESIAN_POINT('',(0.E+000,1.998401444325E-015,4.5));
#264 = DIRECTION('',(0.E+000,-4.440892098501E-016,-1.));
#265 = DIRECTION('',(1.,9.992007221626E-016,-4.437342591868E-031));
#266 = ADVANCED_FACE('',(#267),#286,.T.);
#267 = FACE_BOUND('',#268,.T.);
#268 = EDGE_LOOP('',(#269,#270,#278,#285));
#269 = ORIENTED_EDGE('',*,*,#253,.T.);
#270 = ORIENTED_EDGE('',*,*,#271,.T.);
#271 = EDGE_CURVE('',#254,#272,#274,.T.);
#272 = VERTEX_POINT('',#273);
#273 = CARTESIAN_POINT('',(0.25,1.110223024625E-015,5.));
#274 = LINE('',#275,#276);
#275 = CARTESIAN_POINT('',(0.25,-6.661338147751E-016,-3.));
#276 = VECTOR('',#277,1.);
#277 = DIRECTION('',(0.E+000,2.22044604925E-016,1.));
#278 = ORIENTED_EDGE('',*,*,#279,.F.);
#279 = EDGE_CURVE('',#272,#272,#280,.T.);
#280 = CIRCLE('',#281,0.25);
#281 = AXIS2_PLACEMENT_3D('',#282,#283,#284);
#282 = CARTESIAN_POINT('',(0.E+000,1.110223024625E-015,5.));
#283 = DIRECTION('',(-0.E+000,2.22044604925E-016,1.));
#284 = DIRECTION('',(1.,0.E+000,0.E+000));
#285 = ORIENTED_EDGE('',*,*,#271,.F.);
#286 = CYLINDRICAL_SURFACE('',#287,0.25);
#287 = AXIS2_PLACEMENT_3D('',#288,#289,#290);
#288 = CARTESIAN_POINT('',(0.E+000,-6.661338147751E-016,-3.));
#289 = DIRECTION('',(0.E+000,2.22044604925E-016,1.));
#290 = DIRECTION('',(1.,0.E+000,0.E+000));
#291 = ADVANCED_FACE('',(#292),#312,.T.);
#292 = FACE_BOUND('',#293,.T.);
#293 = EDGE_LOOP('',(#294,#303,#310,#311));
#294 = ORIENTED_EDGE('',*,*,#295,.T.);
#295 = EDGE_CURVE('',#272,#296,#298,.T.);
#296 = VERTEX_POINT('',#297);
#297 = CARTESIAN_POINT('',(0.5,1.165734175856E-015,5.25));
#298 = CIRCLE('',#299,0.25);
#299 = AXIS2_PLACEMENT_3D('',#300,#301,#302);
#300 = CARTESIAN_POINT('',(0.5,1.202071534561E-015,5.));
#301 = DIRECTION('',(0.E+000,1.,-2.22044604925E-016));
#302 = DIRECTION('',(1.,0.E+000,0.E+000));
#303 = ORIENTED_EDGE('',*,*,#304,.T.);
#304 = EDGE_CURVE('',#296,#296,#305,.T.);
#305 = CIRCLE('',#306,0.25);
#306 = AXIS2_PLACEMENT_3D('',#307,#308,#309);
#307 = CARTESIAN_POINT('',(0.5,1.221245327088E-015,5.5));
#308 = DIRECTION('',(-1.,-4.078893220341E-032,-1.836970198721E-016));
#309 = DIRECTION('',(-1.836970198721E-016,2.22044604925E-016,1.));
#310 = ORIENTED_EDGE('',*,*,#295,.F.);
#311 = ORIENTED_EDGE('',*,*,#279,.T.);
#312 = TOROIDAL_SURFACE('',#313,0.5,0.25);
#313 = AXIS2_PLACEMENT_3D('',#314,#315,#316);
#314 = CARTESIAN_POINT('',(0.5,1.110223024625E-015,5.));
#315 = DIRECTION('',(0.E+000,1.,-2.22044604925E-016));
#316 = DIRECTION('',(1.,0.E+000,0.E+000));
#317 = ADVANCED_FACE('',(#318),#337,.T.);
#318 = FACE_BOUND('',#319,.T.);
#319 = EDGE_LOOP('',(#320,#328,#335,#336));
#320 = ORIENTED_EDGE('',*,*,#321,.T.);
#321 = EDGE_CURVE('',#296,#322,#324,.T.);
#322 = VERTEX_POINT('',#323);
#323 = CARTESIAN_POINT('',(4.58,1.165734175856E-015,5.25));
#324 = LINE('',#325,#326);
#325 = CARTESIAN_POINT('',(0.5,1.165734175856E-015,5.25));
#326 = VECTOR('',#327,1.);
#327 = DIRECTION('',(1.,0.E+000,0.E+000));
#328 = ORIENTED_EDGE('',*,*,#329,.F.);
#329 = EDGE_CURVE('',#322,#322,#330,.T.);
#330 = CIRCLE('',#331,0.25);
#331 = AXIS2_PLACEMENT_3D('',#332,#333,#334);
#332 = CARTESIAN_POINT('',(4.58,1.221245327088E-015,5.5));
#333 = DIRECTION('',(1.,0.E+000,0.E+000));
#334 = DIRECTION('',(0.E+000,-2.22044604925E-016,-1.));
#335 = ORIENTED_EDGE('',*,*,#321,.F.);
#336 = ORIENTED_EDGE('',*,*,#304,.F.);
#337 = CYLINDRICAL_SURFACE('',#338,0.25);
#338 = AXIS2_PLACEMENT_3D('',#339,#340,#341);
#339 = CARTESIAN_POINT('',(0.5,1.221245327088E-015,5.5));
#340 = DIRECTION('',(1.,0.E+000,0.E+000));
#341 = DIRECTION('',(0.E+000,-2.22044604925E-016,-1.));
#342 = ADVANCED_FACE('',(#343),#363,.T.);
#343 = FACE_BOUND('',#344,.T.);
#344 = EDGE_LOOP('',(#345,#354,#361,#362));
#345 = ORIENTED_EDGE('',*,*,#346,.T.);
#346 = EDGE_CURVE('',#322,#347,#349,.T.);
#347 = VERTEX_POINT('',#348);
#348 = CARTESIAN_POINT('',(4.83,1.110223024625E-015,5.));
#349 = CIRCLE('',#350,0.25);
#350 = AXIS2_PLACEMENT_3D('',#351,#352,#353);
#351 = CARTESIAN_POINT('',(4.58,1.202071534561E-015,5.));
#352 = DIRECTION('',(0.E+000,1.,-2.22044604925E-016));
#353 = DIRECTION('',(1.,0.E+000,0.E+000));
#354 = ORIENTED_EDGE('',*,*,#355,.T.);
#355 = EDGE_CURVE('',#347,#347,#356,.T.);
#356 = CIRCLE('',#357,0.25);
#357 = AXIS2_PLACEMENT_3D('',#358,#359,#360);
#358 = CARTESIAN_POINT('',(5.08,1.110223024625E-015,5.));
#359 = DIRECTION('',(-2.449293598295E-016,2.22044604925E-016,1.));
#360 = DIRECTION('',(1.,5.438524293788E-032,2.449293598295E-016));
#361 = ORIENTED_EDGE('',*,*,#346,.F.);
#362 = ORIENTED_EDGE('',*,*,#329,.T.);
#363 = TOROIDAL_SURFACE('',#364,0.5,0.25);
#364 = AXIS2_PLACEMENT_3D('',#365,#366,#367);
#365 = CARTESIAN_POINT('',(4.58,1.110223024625E-015,5.));
#366 = DIRECTION('',(0.E+000,1.,-2.22044604925E-016));
#367 = DIRECTION('',(1.,0.E+000,0.E+000));
#368 = ADVANCED_FACE('',(#369),#388,.T.);
#369 = FACE_BOUND('',#370,.T.);
#370 = EDGE_LOOP('',(#371,#379,#386,#387));
#371 = ORIENTED_EDGE('',*,*,#372,.T.);
#372 = EDGE_CURVE('',#347,#373,#375,.T.);
#373 = VERTEX_POINT('',#374);
#374 = CARTESIAN_POINT('',(4.83,-7.273661547325E-016,-3.));
#375 = LINE('',#376,#377);
#376 = CARTESIAN_POINT('',(4.83,-6.661338147751E-016,-3.));
#377 = VECTOR('',#378,1.);
#378 = DIRECTION('',(0.E+000,-2.22044604925E-016,-1.));
#379 = ORIENTED_EDGE('',*,*,#380,.F.);
#380 = EDGE_CURVE('',#373,#373,#381,.T.);
#381 = CIRCLE('',#382,0.25);
#382 = AXIS2_PLACEMENT_3D('',#383,#384,#385);
#383 = CARTESIAN_POINT('',(5.08,-6.661338147751E-016,-3.));
#384 = DIRECTION('',(0.E+000,-2.22044604925E-016,-1.));
#385 = DIRECTION('',(-1.,5.473822126269E-048,-1.215432671457E-063));
#386 = ORIENTED_EDGE('',*,*,#372,.F.);
#387 = ORIENTED_EDGE('',*,*,#355,.F.);
#388 = CYLINDRICAL_SURFACE('',#389,0.25);
#389 = AXIS2_PLACEMENT_3D('',#390,#391,#392);
#390 = CARTESIAN_POINT('',(5.08,-6.661338147751E-016,-3.));
#391 = DIRECTION('',(0.E+000,-2.22044604925E-016,-1.));
#392 = DIRECTION('',(-1.,5.473822126269E-048,-1.215432671457E-063));
#393 = ADVANCED_FACE('',(#394),#397,.F.);
#394 = FACE_BOUND('',#395,.T.);
#395 = EDGE_LOOP('',(#396));
#396 = ORIENTED_EDGE('',*,*,#380,.T.);
#397 = PLANE('',#398);
#398 = AXIS2_PLACEMENT_3D('',#399,#400,#401);
#399 = CARTESIAN_POINT('',(4.83,-6.661338147751E-016,-3.));
#400 = DIRECTION('',(0.E+000,0.E+000,1.));
#401 = DIRECTION('',(1.,0.E+000,0.E+000));
#402 = ( GEOMETRIC_REPRESENTATION_CONTEXT(3) 
GLOBAL_UNCERTAINTY_ASSIGNED_CONTEXT((#406)) GLOBAL_UNIT_ASSIGNED_CONTEXT
((#403,#404,#405)) REPRESENTATION_CONTEXT('Context #1',
  '3D Context with UNIT and UNCERTAINTY') );
#403 = ( LENGTH_UNIT() NAMED_UNIT(*) SI_UNIT(.MILLI.,.METRE.) );
#404 = ( NAMED_UNIT(*) PLANE_ANGLE_UNIT() SI_UNIT($,.RADIAN.) );
#405 = ( NAMED_UNIT(*) SI_UNIT($,.STERADIAN.) SOLID_ANGLE_UNIT() );
#406 = UNCERTAINTY_MEASURE_WITH_UNIT(LENGTH_MEASURE(1.E-007),#403,
  'distance_accuracy_value','confusion accuracy');
#407 = PRODUCT_RELATED_PRODUCT_CATEGORY('part',$,(#7));
#408 = MECHANICAL_DESIGN_GEOMETRIC_PRESENTATION_REPRESENTATION('',(#409,
    #417,#424,#432,#439,#446,#454,#461,#468,#475,#482,#489,#496,#503,
    #510,#517,#524),#402);
#409 = STYLED_ITEM('color',(#410),#17);
#410 = PRESENTATION_STYLE_ASSIGNMENT((#411));
#411 = SURFACE_STYLE_USAGE(.BOTH.,#412);
#412 = SURFACE_SIDE_STYLE('',(#413));
#413 = SURFACE_STYLE_FILL_AREA(#414);
#414 = FILL_AREA_STYLE('',(#415));
#415 = FILL_AREA_STYLE_COLOUR('',#416);
#416 = COLOUR_RGB('',0.824000000954,0.819999992847,0.78100001812);
#417 = STYLED_ITEM('color',(#418),#34);
#418 = PRESENTATION_STYLE_ASSIGNMENT((#419));
#419 = SURFACE_STYLE_USAGE(.BOTH.,#420);
#420 = SURFACE_SIDE_STYLE('',(#421));
#421 = SURFACE_STYLE_FILL_AREA(#422);
#422 = FILL_AREA_STYLE('',(#423));
#423 = FILL_AREA_STYLE_COLOUR('',#416);
#424 = STYLED_ITEM('color',(#425),#59);
#425 = PRESENTATION_STYLE_ASSIGNMENT((#426));
#426 = SURFACE_STYLE_USAGE(.BOTH.,#427);
#427 = SURFACE_SIDE_STYLE('',(#428));
#428 = SURFACE_STYLE_FILL_AREA(#429);
#429 = FILL_AREA_STYLE('',(#430));
#430 = FILL_AREA_STYLE_COLOUR('',#431);
#431 = COLOUR_RGB('',0.E+000,0.631244003773,0.748015999794);
#432 = STYLED_ITEM('color',(#433),#79);
#433 = PRESENTATION_STYLE_ASSIGNMENT((#434));
#434 = SURFACE_STYLE_USAGE(.BOTH.,#435);
#435 = SURFACE_SIDE_STYLE('',(#436));
#436 = SURFACE_STYLE_FILL_AREA(#437);
#437 = FILL_AREA_STYLE('',(#438));
#438 = FILL_AREA_STYLE_COLOUR('',#431);
#439 = STYLED_ITEM('color',(#440),#105);
#440 = PRESENTATION_STYLE_ASSIGNMENT((#441));
#441 = SURFACE_STYLE_USAGE(.BOTH.,#442);
#442 = SURFACE_SIDE_STYLE('',(#443));
#443 = SURFACE_STYLE_FILL_AREA(#444);
#444 = FILL_AREA_STYLE('',(#445));
#445 = FILL_AREA_STYLE_COLOUR('',#431);
#446 = STYLED_ITEM('color',(#447),#130);
#447 = PRESENTATION_STYLE_ASSIGNMENT((#448));
#448 = SURFACE_STYLE_USAGE(.BOTH.,#449);
#449 = SURFACE_SIDE_STYLE('',(#450));
#450 = SURFACE_STYLE_FILL_AREA(#451);
#451 = FILL_AREA_STYLE('',(#452));
#452 = FILL_AREA_STYLE_COLOUR('',#453);
#453 = COLOUR_RGB('',0.699999988079,0.10000000149,5.000000074506E-002);
#454 = STYLED_ITEM('color',(#455),#150);
#455 = PRESENTATION_STYLE_ASSIGNMENT((#456));
#456 = SURFACE_STYLE_USAGE(.BOTH.,#457);
#457 = SURFACE_SIDE_STYLE('',(#458));
#458 = SURFACE_STYLE_FILL_AREA(#459);
#459 = FILL_AREA_STYLE('',(#460));
#460 = FILL_AREA_STYLE_COLOUR('',#453);
#461 = STYLED_ITEM('color',(#462),#175);
#462 = PRESENTATION_STYLE_ASSIGNMENT((#463));
#463 = SURFACE_STYLE_USAGE(.BOTH.,#464);
#464 = SURFACE_SIDE_STYLE('',(#465));
#465 = SURFACE_STYLE_FILL_AREA(#466);
#466 = FILL_AREA_STYLE('',(#467));
#467 = FILL_AREA_STYLE_COLOUR('',#453);
#468 = STYLED_ITEM('color',(#469),#195);
#469 = PRESENTATION_STYLE_ASSIGNMENT((#470));
#470 = SURFACE_STYLE_USAGE(.BOTH.,#471);
#471 = SURFACE_SIDE_STYLE('',(#472));
#472 = SURFACE_STYLE_FILL_AREA(#473);
#473 = FILL_AREA_STYLE('',(#474));
#474 = FILL_AREA_STYLE_COLOUR('',#431);
#475 = STYLED_ITEM('color',(#476),#220);
#476 = PRESENTATION_STYLE_ASSIGNMENT((#477));
#477 = SURFACE_STYLE_USAGE(.BOTH.,#478);
#478 = SURFACE_SIDE_STYLE('',(#479));
#479 = SURFACE_STYLE_FILL_AREA(#480);
#480 = FILL_AREA_STYLE('',(#481));
#481 = FILL_AREA_STYLE_COLOUR('',#431);
#482 = STYLED_ITEM('color',(#483),#246);
#483 = PRESENTATION_STYLE_ASSIGNMENT((#484));
#484 = SURFACE_STYLE_USAGE(.BOTH.,#485);
#485 = SURFACE_SIDE_STYLE('',(#486));
#486 = SURFACE_STYLE_FILL_AREA(#487);
#487 = FILL_AREA_STYLE('',(#488));
#488 = FILL_AREA_STYLE_COLOUR('',#431);
#489 = STYLED_ITEM('color',(#490),#266);
#490 = PRESENTATION_STYLE_ASSIGNMENT((#491));
#491 = SURFACE_STYLE_USAGE(.BOTH.,#492);
#492 = SURFACE_SIDE_STYLE('',(#493));
#493 = SURFACE_STYLE_FILL_AREA(#494);
#494 = FILL_AREA_STYLE('',(#495));
#495 = FILL_AREA_STYLE_COLOUR('',#416);
#496 = STYLED_ITEM('color',(#497),#291);
#497 = PRESENTATION_STYLE_ASSIGNMENT((#498));
#498 = SURFACE_STYLE_USAGE(.BOTH.,#499);
#499 = SURFACE_SIDE_STYLE('',(#500));
#500 = SURFACE_STYLE_FILL_AREA(#501);
#501 = FILL_AREA_STYLE('',(#502));
#502 = FILL_AREA_STYLE_COLOUR('',#416);
#503 = STYLED_ITEM('color',(#504),#317);
#504 = PRESENTATION_STYLE_ASSIGNMENT((#505));
#505 = SURFACE_STYLE_USAGE(.BOTH.,#506);
#506 = SURFACE_SIDE_STYLE('',(#507));
#507 = SURFACE_STYLE_FILL_AREA(#508);
#508 = FILL_AREA_STYLE('',(#509));
#509 = FILL_AREA_STYLE_COLOUR('',#416);
#510 = STYLED_ITEM('color',(#511),#342);
#511 = PRESENTATION_STYLE_ASSIGNMENT((#512));
#512 = SURFACE_STYLE_USAGE(.BOTH.,#513);
#513 = SURFACE_SIDE_STYLE('',(#514));
#514 = SURFACE_STYLE_FILL_AREA(#515);
#515 = FILL_AREA_STYLE('',(#516));
#516 = FILL_AREA_STYLE_COLOUR('',#416);
#517 = STYLED_ITEM('color',(#518),#368);
#518 = PRESENTATION_STYLE_ASSIGNMENT((#519));
#519 = SURFACE_STYLE_USAGE(.BOTH.,#520);
#520 = SURFACE_SIDE_STYLE('',(#521));
#521 = SURFACE_STYLE_FILL_AREA(#522);
#522 = FILL_AREA_STYLE('',(#523));
#523 = FILL_AREA_STYLE_COLOUR('',#416);
#524 = STYLED_ITEM('color',(#525),#393);
#525 = PRESENTATION_STYLE_ASSIGNMENT((#526));
#526 = SURFACE_STYLE_USAGE(.BOTH.,#527);
#527 = SURFACE_SIDE_STYLE('',(#528));
#528 = SURFACE_STYLE_FILL_AREA(#529);
#529 = FILL_AREA_STYLE('',(#530));
#530 = FILL_AREA_STYLE_COLOUR('',#416);
ENDSEC;
END-ISO-10303-21;
