ISO-10303-21;
HEADER;
FILE_DESCRIPTION(('FreeCAD Model'),'2;1');
FILE_NAME(
'D:/KiCAD/packages3D-source/Diode_THT.3dshapes\\
D_5KP_P7.62mm_Vertical_KathodeUp.step','2017-11-23T21:43:43',(
    'kicad StepUp'),('ksu MCAD'),'Open CASCADE STEP processor 7.1',
  'FreeCAD','Unknown');
FILE_SCHEMA(('AUTOMOTIVE_DESIGN { 1 0 10303 214 1 1 1 1 }'));
ENDSEC;
DATA;
#1 = APPLICATION_PROTOCOL_DEFINITION('international standard',
  'automotive_design',2000,#2);
#2 = APPLICATION_CONTEXT(
  'core data for automotive mechanical design processes');
#3 = SHAPE_DEFINITION_REPRESENTATION(#4,#10);
#4 = PRODUCT_DEFINITION_SHAPE('','',#5);
#5 = PRODUCT_DEFINITION('design','',#6,#9);
#6 = PRODUCT_DEFINITION_FORMATION('','',#7);
#7 = PRODUCT('D_5KP_P7.62mm_Vertical_KathodeUp',
  'D_5KP_P7.62mm_Vertical_KathodeUp','',(#8));
#8 = PRODUCT_CONTEXT('',#2,'mechanical');
#9 = PRODUCT_DEFINITION_CONTEXT('part definition',#2,'design');
#10 = ADVANCED_BREP_SHAPE_REPRESENTATION('',(#11,#15),#350);
#11 = AXIS2_PLACEMENT_3D('',#12,#13,#14);
#12 = CARTESIAN_POINT('',(0.E+000,0.E+000,0.E+000));
#13 = DIRECTION('',(0.E+000,0.E+000,1.));
#14 = DIRECTION('',(1.,0.E+000,-0.E+000));
#15 = MANIFOLD_SOLID_BREP('',#16);
#16 = CLOSED_SHELL('',(#17,#50,#59,#85,#110,#136,#161,#181,#206,#226,
    #251,#271,#296,#316,#341));
#17 = ADVANCED_FACE('',(#18),#45,.T.);
#18 = FACE_BOUND('',#19,.T.);
#19 = EDGE_LOOP('',(#20,#30,#37,#38));
#20 = ORIENTED_EDGE('',*,*,#21,.T.);
#21 = EDGE_CURVE('',#22,#24,#26,.T.);
#22 = VERTEX_POINT('',#23);
#23 = CARTESIAN_POINT('',(0.55,-8.008449626813E-016,-3.));
#24 = VERTEX_POINT('',#25);
#25 = CARTESIAN_POINT('',(0.55,1.914024494454E-015,8.62));
#26 = LINE('',#27,#28);
#27 = CARTESIAN_POINT('',(0.55,-6.661338147751E-016,-3.));
#28 = VECTOR('',#29,1.);
#29 = DIRECTION('',(0.E+000,2.22044604925E-016,1.));
#30 = ORIENTED_EDGE('',*,*,#31,.F.);
#31 = EDGE_CURVE('',#24,#24,#32,.T.);
#32 = CIRCLE('',#33,0.55);
#33 = AXIS2_PLACEMENT_3D('',#34,#35,#36);
#34 = CARTESIAN_POINT('',(0.E+000,1.914024494454E-015,8.62));
#35 = DIRECTION('',(-0.E+000,2.22044604925E-016,1.));
#36 = DIRECTION('',(1.,0.E+000,0.E+000));
#37 = ORIENTED_EDGE('',*,*,#21,.F.);
#38 = ORIENTED_EDGE('',*,*,#39,.T.);
#39 = EDGE_CURVE('',#22,#22,#40,.T.);
#40 = CIRCLE('',#41,0.55);
#41 = AXIS2_PLACEMENT_3D('',#42,#43,#44);
#42 = CARTESIAN_POINT('',(0.E+000,-6.661338147751E-016,-3.));
#43 = DIRECTION('',(-0.E+000,2.22044604925E-016,1.));
#44 = DIRECTION('',(1.,0.E+000,0.E+000));
#45 = CYLINDRICAL_SURFACE('',#46,0.55);
#46 = AXIS2_PLACEMENT_3D('',#47,#48,#49);
#47 = CARTESIAN_POINT('',(0.E+000,-6.661338147751E-016,-3.));
#48 = DIRECTION('',(0.E+000,2.22044604925E-016,1.));
#49 = DIRECTION('',(1.,0.E+000,0.E+000));
#50 = ADVANCED_FACE('',(#51),#54,.T.);
#51 = FACE_BOUND('',#52,.F.);
#52 = EDGE_LOOP('',(#53));
#53 = ORIENTED_EDGE('',*,*,#39,.T.);
#54 = PLANE('',#55);
#55 = AXIS2_PLACEMENT_3D('',#56,#57,#58);
#56 = CARTESIAN_POINT('',(0.55,-6.661338147751E-016,-3.));
#57 = DIRECTION('',(0.E+000,0.E+000,-1.));
#58 = DIRECTION('',(-1.,0.E+000,0.E+000));
#59 = ADVANCED_FACE('',(#60),#80,.T.);
#60 = FACE_BOUND('',#61,.T.);
#61 = EDGE_LOOP('',(#62,#71,#78,#79));
#62 = ORIENTED_EDGE('',*,*,#63,.T.);
#63 = EDGE_CURVE('',#24,#64,#66,.T.);
#64 = VERTEX_POINT('',#65);
#65 = CARTESIAN_POINT('',(1.1,2.036149027163E-015,9.17));
#66 = CIRCLE('',#67,0.55);
#67 = AXIS2_PLACEMENT_3D('',#68,#69,#70);
#68 = CARTESIAN_POINT('',(1.1,2.116091216313E-015,8.62));
#69 = DIRECTION('',(0.E+000,1.,-2.22044604925E-016));
#70 = DIRECTION('',(1.,0.E+000,0.E+000));
#71 = ORIENTED_EDGE('',*,*,#72,.T.);
#72 = EDGE_CURVE('',#64,#64,#73,.T.);
#73 = CIRCLE('',#74,0.55);
#74 = AXIS2_PLACEMENT_3D('',#75,#76,#77);
#75 = CARTESIAN_POINT('',(1.1,2.158273559871E-015,9.72));
#76 = DIRECTION('',(-1.,-4.078893220341E-032,-1.836970198721E-016));
#77 = DIRECTION('',(-1.836970198721E-016,2.22044604925E-016,1.));
#78 = ORIENTED_EDGE('',*,*,#63,.F.);
#79 = ORIENTED_EDGE('',*,*,#31,.T.);
#80 = TOROIDAL_SURFACE('',#81,1.1,0.55);
#81 = AXIS2_PLACEMENT_3D('',#82,#83,#84);
#82 = CARTESIAN_POINT('',(1.1,1.914024494454E-015,8.62));
#83 = DIRECTION('',(0.E+000,1.,-2.22044604925E-016));
#84 = DIRECTION('',(1.,0.E+000,0.E+000));
#85 = ADVANCED_FACE('',(#86),#105,.T.);
#86 = FACE_BOUND('',#87,.T.);
#87 = EDGE_LOOP('',(#88,#96,#103,#104));
#88 = ORIENTED_EDGE('',*,*,#89,.T.);
#89 = EDGE_CURVE('',#64,#90,#92,.T.);
#90 = VERTEX_POINT('',#91);
#91 = CARTESIAN_POINT('',(6.52,2.036149027163E-015,9.17));
#92 = LINE('',#93,#94);
#93 = CARTESIAN_POINT('',(1.1,2.036149027163E-015,9.17));
#94 = VECTOR('',#95,1.);
#95 = DIRECTION('',(1.,0.E+000,0.E+000));
#96 = ORIENTED_EDGE('',*,*,#97,.F.);
#97 = EDGE_CURVE('',#90,#90,#98,.T.);
#98 = CIRCLE('',#99,0.55);
#99 = AXIS2_PLACEMENT_3D('',#100,#101,#102);
#100 = CARTESIAN_POINT('',(6.52,2.158273559871E-015,9.72));
#101 = DIRECTION('',(1.,0.E+000,0.E+000));
#102 = DIRECTION('',(0.E+000,-2.22044604925E-016,-1.));
#103 = ORIENTED_EDGE('',*,*,#89,.F.);
#104 = ORIENTED_EDGE('',*,*,#72,.F.);
#105 = CYLINDRICAL_SURFACE('',#106,0.55);
#106 = AXIS2_PLACEMENT_3D('',#107,#108,#109);
#107 = CARTESIAN_POINT('',(1.1,2.158273559871E-015,9.72));
#108 = DIRECTION('',(1.,0.E+000,0.E+000));
#109 = DIRECTION('',(0.E+000,-2.22044604925E-016,-1.));
#110 = ADVANCED_FACE('',(#111),#131,.T.);
#111 = FACE_BOUND('',#112,.T.);
#112 = EDGE_LOOP('',(#113,#122,#129,#130));
#113 = ORIENTED_EDGE('',*,*,#114,.T.);
#114 = EDGE_CURVE('',#90,#115,#117,.T.);
#115 = VERTEX_POINT('',#116);
#116 = CARTESIAN_POINT('',(7.07,1.914024494454E-015,8.62));
#117 = CIRCLE('',#118,0.55);
#118 = AXIS2_PLACEMENT_3D('',#119,#120,#121);
#119 = CARTESIAN_POINT('',(6.52,2.116091216313E-015,8.62));
#120 = DIRECTION('',(0.E+000,1.,-2.22044604925E-016));
#121 = DIRECTION('',(1.,0.E+000,0.E+000));
#122 = ORIENTED_EDGE('',*,*,#123,.T.);
#123 = EDGE_CURVE('',#115,#115,#124,.T.);
#124 = CIRCLE('',#125,0.55);
#125 = AXIS2_PLACEMENT_3D('',#126,#127,#128);
#126 = CARTESIAN_POINT('',(7.62,1.914024494454E-015,8.62));
#127 = DIRECTION('',(-2.449293598295E-016,2.22044604925E-016,1.));
#128 = DIRECTION('',(1.,5.438524293788E-032,2.449293598295E-016));
#129 = ORIENTED_EDGE('',*,*,#114,.F.);
#130 = ORIENTED_EDGE('',*,*,#97,.T.);
#131 = TOROIDAL_SURFACE('',#132,1.1,0.55);
#132 = AXIS2_PLACEMENT_3D('',#133,#134,#135);
#133 = CARTESIAN_POINT('',(6.52,1.914024494454E-015,8.62));
#134 = DIRECTION('',(0.E+000,1.,-2.22044604925E-016));
#135 = DIRECTION('',(1.,0.E+000,0.E+000));
#136 = ADVANCED_FACE('',(#137),#156,.T.);
#137 = FACE_BOUND('',#138,.T.);
#138 = EDGE_LOOP('',(#139,#140,#148,#155));
#139 = ORIENTED_EDGE('',*,*,#123,.F.);
#140 = ORIENTED_EDGE('',*,*,#141,.T.);
#141 = EDGE_CURVE('',#115,#142,#144,.T.);
#142 = VERTEX_POINT('',#143);
#143 = CARTESIAN_POINT('',(7.07,1.803002191991E-015,8.12));
#144 = LINE('',#145,#146);
#145 = CARTESIAN_POINT('',(7.07,-6.661338147751E-016,-3.));
#146 = VECTOR('',#147,1.);
#147 = DIRECTION('',(0.E+000,-2.22044604925E-016,-1.));
#148 = ORIENTED_EDGE('',*,*,#149,.F.);
#149 = EDGE_CURVE('',#142,#142,#150,.T.);
#150 = CIRCLE('',#151,0.55);
#151 = AXIS2_PLACEMENT_3D('',#152,#153,#154);
#152 = CARTESIAN_POINT('',(7.62,1.803002191991E-015,8.12));
#153 = DIRECTION('',(0.E+000,-2.22044604925E-016,-1.));
#154 = DIRECTION('',(-1.,5.473822126269E-048,-1.215432671457E-063));
#155 = ORIENTED_EDGE('',*,*,#141,.F.);
#156 = CYLINDRICAL_SURFACE('',#157,0.55);
#157 = AXIS2_PLACEMENT_3D('',#158,#159,#160);
#158 = CARTESIAN_POINT('',(7.62,-6.661338147751E-016,-3.));
#159 = DIRECTION('',(0.E+000,-2.22044604925E-016,-1.));
#160 = DIRECTION('',(-1.,5.473822126269E-048,-1.215432671457E-063));
#161 = ADVANCED_FACE('',(#162,#173),#176,.F.);
#162 = FACE_BOUND('',#163,.T.);
#163 = EDGE_LOOP('',(#164));
#164 = ORIENTED_EDGE('',*,*,#165,.F.);
#165 = EDGE_CURVE('',#166,#166,#168,.T.);
#166 = VERTEX_POINT('',#167);
#167 = CARTESIAN_POINT('',(12.385,5.409006575974E-015,8.12));
#168 = CIRCLE('',#169,4.765);
#169 = AXIS2_PLACEMENT_3D('',#170,#171,#172);
#170 = CARTESIAN_POINT('',(7.62,3.606004383983E-015,8.12));
#171 = DIRECTION('',(0.E+000,-4.440892098501E-016,-1.));
#172 = DIRECTION('',(1.,3.783845103864E-016,-1.68036478237E-031));
#173 = FACE_BOUND('',#174,.T.);
#174 = EDGE_LOOP('',(#175));
#175 = ORIENTED_EDGE('',*,*,#149,.T.);
#176 = PLANE('',#177);
#177 = AXIS2_PLACEMENT_3D('',#178,#179,#180);
#178 = CARTESIAN_POINT('',(7.62,3.606004383983E-015,8.12));
#179 = DIRECTION('',(0.E+000,-4.440892098501E-016,-1.));
#180 = DIRECTION('',(1.,3.783845103864E-016,-1.68036478237E-031));
#181 = ADVANCED_FACE('',(#182),#201,.T.);
#182 = FACE_BOUND('',#183,.T.);
#183 = EDGE_LOOP('',(#184,#192,#193,#194));
#184 = ORIENTED_EDGE('',*,*,#185,.F.);
#185 = EDGE_CURVE('',#166,#186,#188,.T.);
#186 = VERTEX_POINT('',#187);
#187 = CARTESIAN_POINT('',(12.385,4.647615625686E-015,6.977));
#188 = LINE('',#189,#190);
#189 = CARTESIAN_POINT('',(12.385,5.409006575974E-015,8.12));
#190 = VECTOR('',#191,1.);
#191 = DIRECTION('',(0.E+000,-6.661338147751E-016,-1.));
#192 = ORIENTED_EDGE('',*,*,#165,.T.);
#193 = ORIENTED_EDGE('',*,*,#185,.T.);
#194 = ORIENTED_EDGE('',*,*,#195,.F.);
#195 = EDGE_CURVE('',#186,#186,#196,.T.);
#196 = CIRCLE('',#197,4.765);
#197 = AXIS2_PLACEMENT_3D('',#198,#199,#200);
#198 = CARTESIAN_POINT('',(7.62,3.098410417124E-015,6.977));
#199 = DIRECTION('',(0.E+000,-4.440892098501E-016,-1.));
#200 = DIRECTION('',(1.,3.783845103864E-016,-1.68036478237E-031));
#201 = CYLINDRICAL_SURFACE('',#202,4.765);
#202 = AXIS2_PLACEMENT_3D('',#203,#204,#205);
#203 = CARTESIAN_POINT('',(7.62,3.606004383983E-015,8.12));
#204 = DIRECTION('',(0.E+000,-4.440892098501E-016,-1.));
#205 = DIRECTION('',(1.,3.783845103864E-016,-1.68036478237E-031));
#206 = ADVANCED_FACE('',(#207,#218),#221,.F.);
#207 = FACE_BOUND('',#208,.T.);
#208 = EDGE_LOOP('',(#209));
#209 = ORIENTED_EDGE('',*,*,#210,.F.);
#210 = EDGE_CURVE('',#211,#211,#213,.T.);
#211 = VERTEX_POINT('',#212);
#212 = CARTESIAN_POINT('',(12.395,4.647615625686E-015,6.977));
#213 = CIRCLE('',#214,4.775);
#214 = AXIS2_PLACEMENT_3D('',#215,#216,#217);
#215 = CARTESIAN_POINT('',(7.62,3.098410417124E-015,6.977));
#216 = DIRECTION('',(0.E+000,-4.440892098501E-016,-1.));
#217 = DIRECTION('',(1.,3.244408813742E-016,-1.440806946525E-031));
#218 = FACE_BOUND('',#219,.T.);
#219 = EDGE_LOOP('',(#220));
#220 = ORIENTED_EDGE('',*,*,#195,.T.);
#221 = PLANE('',#222);
#222 = AXIS2_PLACEMENT_3D('',#223,#224,#225);
#223 = CARTESIAN_POINT('',(7.62,3.098410417124E-015,6.977));
#224 = DIRECTION('',(0.E+000,-4.440892098501E-016,-1.));
#225 = DIRECTION('',(1.,3.244408813742E-016,-1.440806946525E-031));
#226 = ADVANCED_FACE('',(#227),#246,.T.);
#227 = FACE_BOUND('',#228,.T.);
#228 = EDGE_LOOP('',(#229,#230,#238,#245));
#229 = ORIENTED_EDGE('',*,*,#210,.T.);
#230 = ORIENTED_EDGE('',*,*,#231,.T.);
#231 = EDGE_CURVE('',#211,#232,#234,.T.);
#232 = VERTEX_POINT('',#233);
#233 = CARTESIAN_POINT('',(12.395,3.378630708539E-015,5.072));
#234 = LINE('',#235,#236);
#235 = CARTESIAN_POINT('',(12.395,4.647615625686E-015,6.977));
#236 = VECTOR('',#237,1.);
#237 = DIRECTION('',(0.E+000,-6.661338147751E-016,-1.));
#238 = ORIENTED_EDGE('',*,*,#239,.F.);
#239 = EDGE_CURVE('',#232,#232,#240,.T.);
#240 = CIRCLE('',#241,4.775);
#241 = AXIS2_PLACEMENT_3D('',#242,#243,#244);
#242 = CARTESIAN_POINT('',(7.62,2.25242047236E-015,5.072));
#243 = DIRECTION('',(0.E+000,-4.440892098501E-016,-1.));
#244 = DIRECTION('',(1.,2.358555468439E-016,-1.047409034367E-031));
#245 = ORIENTED_EDGE('',*,*,#231,.F.);
#246 = CYLINDRICAL_SURFACE('',#247,4.775);
#247 = AXIS2_PLACEMENT_3D('',#248,#249,#250);
#248 = CARTESIAN_POINT('',(7.62,3.098410417124E-015,6.977));
#249 = DIRECTION('',(0.E+000,-4.440892098501E-016,-1.));
#250 = DIRECTION('',(1.,3.244408813742E-016,-1.440806946525E-031));
#251 = ADVANCED_FACE('',(#252,#255),#266,.T.);
#252 = FACE_BOUND('',#253,.T.);
#253 = EDGE_LOOP('',(#254));
#254 = ORIENTED_EDGE('',*,*,#239,.T.);
#255 = FACE_BOUND('',#256,.T.);
#256 = EDGE_LOOP('',(#257));
#257 = ORIENTED_EDGE('',*,*,#258,.F.);
#258 = EDGE_CURVE('',#259,#259,#261,.T.);
#259 = VERTEX_POINT('',#260);
#260 = CARTESIAN_POINT('',(12.385,3.378630708539E-015,5.072));
#261 = CIRCLE('',#262,4.765);
#262 = AXIS2_PLACEMENT_3D('',#263,#264,#265);
#263 = CARTESIAN_POINT('',(7.62,2.25242047236E-015,5.072));
#264 = DIRECTION('',(0.E+000,-4.440892098501E-016,-1.));
#265 = DIRECTION('',(1.,3.783845103864E-016,-1.68036478237E-031));
#266 = PLANE('',#267);
#267 = AXIS2_PLACEMENT_3D('',#268,#269,#270);
#268 = CARTESIAN_POINT('',(7.62,2.25242047236E-015,5.072));
#269 = DIRECTION('',(0.E+000,-4.440892098501E-016,-1.));
#270 = DIRECTION('',(1.,2.358555468439E-016,-1.047409034367E-031));
#271 = ADVANCED_FACE('',(#272),#291,.T.);
#272 = FACE_BOUND('',#273,.T.);
#273 = EDGE_LOOP('',(#274,#275,#283,#290));
#274 = ORIENTED_EDGE('',*,*,#258,.T.);
#275 = ORIENTED_EDGE('',*,*,#276,.T.);
#276 = EDGE_CURVE('',#259,#277,#279,.T.);
#277 = VERTEX_POINT('',#278);
#278 = CARTESIAN_POINT('',(12.385,3.330669073875E-016,0.5));
#279 = LINE('',#280,#281);
#280 = CARTESIAN_POINT('',(12.385,5.409006575974E-015,8.12));
#281 = VECTOR('',#282,1.);
#282 = DIRECTION('',(0.E+000,-6.661338147751E-016,-1.));
#283 = ORIENTED_EDGE('',*,*,#284,.F.);
#284 = EDGE_CURVE('',#277,#277,#285,.T.);
#285 = CIRCLE('',#286,4.765);
#286 = AXIS2_PLACEMENT_3D('',#287,#288,#289);
#287 = CARTESIAN_POINT('',(7.62,2.22044604925E-016,0.5));
#288 = DIRECTION('',(0.E+000,-4.440892098501E-016,-1.));
#289 = DIRECTION('',(1.,2.32995388169E-017,-1.034707378307E-032));
#290 = ORIENTED_EDGE('',*,*,#276,.F.);
#291 = CYLINDRICAL_SURFACE('',#292,4.765);
#292 = AXIS2_PLACEMENT_3D('',#293,#294,#295);
#293 = CARTESIAN_POINT('',(7.62,3.606004383983E-015,8.12));
#294 = DIRECTION('',(0.E+000,-4.440892098501E-016,-1.));
#295 = DIRECTION('',(1.,3.783845103864E-016,-1.68036478237E-031));
#296 = ADVANCED_FACE('',(#297,#300),#311,.T.);
#297 = FACE_BOUND('',#298,.T.);
#298 = EDGE_LOOP('',(#299));
#299 = ORIENTED_EDGE('',*,*,#284,.T.);
#300 = FACE_BOUND('',#301,.T.);
#301 = EDGE_LOOP('',(#302));
#302 = ORIENTED_EDGE('',*,*,#303,.F.);
#303 = EDGE_CURVE('',#304,#304,#306,.T.);
#304 = VERTEX_POINT('',#305);
#305 = CARTESIAN_POINT('',(7.07,1.110223024625E-016,0.5));
#306 = CIRCLE('',#307,0.55);
#307 = AXIS2_PLACEMENT_3D('',#308,#309,#310);
#308 = CARTESIAN_POINT('',(7.62,1.110223024625E-016,0.5));
#309 = DIRECTION('',(0.E+000,-2.22044604925E-016,-1.));
#310 = DIRECTION('',(-1.,5.473822126269E-048,-1.215432671457E-063));
#311 = PLANE('',#312);
#312 = AXIS2_PLACEMENT_3D('',#313,#314,#315);
#313 = CARTESIAN_POINT('',(7.62,2.22044604925E-016,0.5));
#314 = DIRECTION('',(0.E+000,-4.440892098501E-016,-1.));
#315 = DIRECTION('',(1.,2.32995388169E-017,-1.034707378307E-032));
#316 = ADVANCED_FACE('',(#317),#336,.T.);
#317 = FACE_BOUND('',#318,.T.);
#318 = EDGE_LOOP('',(#319,#320,#328,#335));
#319 = ORIENTED_EDGE('',*,*,#303,.T.);
#320 = ORIENTED_EDGE('',*,*,#321,.T.);
#321 = EDGE_CURVE('',#304,#322,#324,.T.);
#322 = VERTEX_POINT('',#323);
#323 = CARTESIAN_POINT('',(7.07,-8.008449626813E-016,-3.));
#324 = LINE('',#325,#326);
#325 = CARTESIAN_POINT('',(7.07,-6.661338147751E-016,-3.));
#326 = VECTOR('',#327,1.);
#327 = DIRECTION('',(0.E+000,-2.22044604925E-016,-1.));
#328 = ORIENTED_EDGE('',*,*,#329,.F.);
#329 = EDGE_CURVE('',#322,#322,#330,.T.);
#330 = CIRCLE('',#331,0.55);
#331 = AXIS2_PLACEMENT_3D('',#332,#333,#334);
#332 = CARTESIAN_POINT('',(7.62,-6.661338147751E-016,-3.));
#333 = DIRECTION('',(0.E+000,-2.22044604925E-016,-1.));
#334 = DIRECTION('',(-1.,5.473822126269E-048,-1.215432671457E-063));
#335 = ORIENTED_EDGE('',*,*,#321,.F.);
#336 = CYLINDRICAL_SURFACE('',#337,0.55);
#337 = AXIS2_PLACEMENT_3D('',#338,#339,#340);
#338 = CARTESIAN_POINT('',(7.62,-6.661338147751E-016,-3.));
#339 = DIRECTION('',(0.E+000,-2.22044604925E-016,-1.));
#340 = DIRECTION('',(-1.,5.473822126269E-048,-1.215432671457E-063));
#341 = ADVANCED_FACE('',(#342),#345,.F.);
#342 = FACE_BOUND('',#343,.T.);
#343 = EDGE_LOOP('',(#344));
#344 = ORIENTED_EDGE('',*,*,#329,.T.);
#345 = PLANE('',#346);
#346 = AXIS2_PLACEMENT_3D('',#347,#348,#349);
#347 = CARTESIAN_POINT('',(7.07,-6.661338147751E-016,-3.));
#348 = DIRECTION('',(0.E+000,0.E+000,1.));
#349 = DIRECTION('',(1.,0.E+000,0.E+000));
#350 = ( GEOMETRIC_REPRESENTATION_CONTEXT(3) 
GLOBAL_UNCERTAINTY_ASSIGNED_CONTEXT((#354)) GLOBAL_UNIT_ASSIGNED_CONTEXT
((#351,#352,#353)) REPRESENTATION_CONTEXT('Context #1',
  '3D Context with UNIT and UNCERTAINTY') );
#351 = ( LENGTH_UNIT() NAMED_UNIT(*) SI_UNIT(.MILLI.,.METRE.) );
#352 = ( NAMED_UNIT(*) PLANE_ANGLE_UNIT() SI_UNIT($,.RADIAN.) );
#353 = ( NAMED_UNIT(*) SI_UNIT($,.STERADIAN.) SOLID_ANGLE_UNIT() );
#354 = UNCERTAINTY_MEASURE_WITH_UNIT(LENGTH_MEASURE(1.E-007),#351,
  'distance_accuracy_value','confusion accuracy');
#355 = PRODUCT_RELATED_PRODUCT_CATEGORY('part',$,(#7));
#356 = MECHANICAL_DESIGN_GEOMETRIC_PRESENTATION_REPRESENTATION('',(#357,
    #365,#372,#379,#386,#393,#400,#408,#415,#423,#430,#437,#444,#451,
    #458),#350);
#357 = STYLED_ITEM('color',(#358),#17);
#358 = PRESENTATION_STYLE_ASSIGNMENT((#359));
#359 = SURFACE_STYLE_USAGE(.BOTH.,#360);
#360 = SURFACE_SIDE_STYLE('',(#361));
#361 = SURFACE_STYLE_FILL_AREA(#362);
#362 = FILL_AREA_STYLE('',(#363));
#363 = FILL_AREA_STYLE_COLOUR('',#364);
#364 = COLOUR_RGB('',0.824000000954,0.819999992847,0.78100001812);
#365 = STYLED_ITEM('color',(#366),#50);
#366 = PRESENTATION_STYLE_ASSIGNMENT((#367));
#367 = SURFACE_STYLE_USAGE(.BOTH.,#368);
#368 = SURFACE_SIDE_STYLE('',(#369));
#369 = SURFACE_STYLE_FILL_AREA(#370);
#370 = FILL_AREA_STYLE('',(#371));
#371 = FILL_AREA_STYLE_COLOUR('',#364);
#372 = STYLED_ITEM('color',(#373),#59);
#373 = PRESENTATION_STYLE_ASSIGNMENT((#374));
#374 = SURFACE_STYLE_USAGE(.BOTH.,#375);
#375 = SURFACE_SIDE_STYLE('',(#376));
#376 = SURFACE_STYLE_FILL_AREA(#377);
#377 = FILL_AREA_STYLE('',(#378));
#378 = FILL_AREA_STYLE_COLOUR('',#364);
#379 = STYLED_ITEM('color',(#380),#85);
#380 = PRESENTATION_STYLE_ASSIGNMENT((#381));
#381 = SURFACE_STYLE_USAGE(.BOTH.,#382);
#382 = SURFACE_SIDE_STYLE('',(#383));
#383 = SURFACE_STYLE_FILL_AREA(#384);
#384 = FILL_AREA_STYLE('',(#385));
#385 = FILL_AREA_STYLE_COLOUR('',#364);
#386 = STYLED_ITEM('color',(#387),#110);
#387 = PRESENTATION_STYLE_ASSIGNMENT((#388));
#388 = SURFACE_STYLE_USAGE(.BOTH.,#389);
#389 = SURFACE_SIDE_STYLE('',(#390));
#390 = SURFACE_STYLE_FILL_AREA(#391);
#391 = FILL_AREA_STYLE('',(#392));
#392 = FILL_AREA_STYLE_COLOUR('',#364);
#393 = STYLED_ITEM('color',(#394),#136);
#394 = PRESENTATION_STYLE_ASSIGNMENT((#395));
#395 = SURFACE_STYLE_USAGE(.BOTH.,#396);
#396 = SURFACE_SIDE_STYLE('',(#397));
#397 = SURFACE_STYLE_FILL_AREA(#398);
#398 = FILL_AREA_STYLE('',(#399));
#399 = FILL_AREA_STYLE_COLOUR('',#364);
#400 = STYLED_ITEM('color',(#401),#161);
#401 = PRESENTATION_STYLE_ASSIGNMENT((#402));
#402 = SURFACE_STYLE_USAGE(.BOTH.,#403);
#403 = SURFACE_SIDE_STYLE('',(#404));
#404 = SURFACE_STYLE_FILL_AREA(#405);
#405 = FILL_AREA_STYLE('',(#406));
#406 = FILL_AREA_STYLE_COLOUR('',#407);
#407 = COLOUR_RGB('',0.148000001907,0.144999995828,0.144999995828);
#408 = STYLED_ITEM('color',(#409),#181);
#409 = PRESENTATION_STYLE_ASSIGNMENT((#410));
#410 = SURFACE_STYLE_USAGE(.BOTH.,#411);
#411 = SURFACE_SIDE_STYLE('',(#412));
#412 = SURFACE_STYLE_FILL_AREA(#413);
#413 = FILL_AREA_STYLE('',(#414));
#414 = FILL_AREA_STYLE_COLOUR('',#407);
#415 = STYLED_ITEM('color',(#416),#206);
#416 = PRESENTATION_STYLE_ASSIGNMENT((#417));
#417 = SURFACE_STYLE_USAGE(.BOTH.,#418);
#418 = SURFACE_SIDE_STYLE('',(#419));
#419 = SURFACE_STYLE_FILL_AREA(#420);
#420 = FILL_AREA_STYLE('',(#421));
#421 = FILL_AREA_STYLE_COLOUR('',#422);
#422 = COLOUR_RGB('',0.894999980927,0.89099997282,0.813000023365);
#423 = STYLED_ITEM('color',(#424),#226);
#424 = PRESENTATION_STYLE_ASSIGNMENT((#425));
#425 = SURFACE_STYLE_USAGE(.BOTH.,#426);
#426 = SURFACE_SIDE_STYLE('',(#427));
#427 = SURFACE_STYLE_FILL_AREA(#428);
#428 = FILL_AREA_STYLE('',(#429));
#429 = FILL_AREA_STYLE_COLOUR('',#422);
#430 = STYLED_ITEM('color',(#431),#251);
#431 = PRESENTATION_STYLE_ASSIGNMENT((#432));
#432 = SURFACE_STYLE_USAGE(.BOTH.,#433);
#433 = SURFACE_SIDE_STYLE('',(#434));
#434 = SURFACE_STYLE_FILL_AREA(#435);
#435 = FILL_AREA_STYLE('',(#436));
#436 = FILL_AREA_STYLE_COLOUR('',#422);
#437 = STYLED_ITEM('color',(#438),#271);
#438 = PRESENTATION_STYLE_ASSIGNMENT((#439));
#439 = SURFACE_STYLE_USAGE(.BOTH.,#440);
#440 = SURFACE_SIDE_STYLE('',(#441));
#441 = SURFACE_STYLE_FILL_AREA(#442);
#442 = FILL_AREA_STYLE('',(#443));
#443 = FILL_AREA_STYLE_COLOUR('',#407);
#444 = STYLED_ITEM('color',(#445),#296);
#445 = PRESENTATION_STYLE_ASSIGNMENT((#446));
#446 = SURFACE_STYLE_USAGE(.BOTH.,#447);
#447 = SURFACE_SIDE_STYLE('',(#448));
#448 = SURFACE_STYLE_FILL_AREA(#449);
#449 = FILL_AREA_STYLE('',(#450));
#450 = FILL_AREA_STYLE_COLOUR('',#407);
#451 = STYLED_ITEM('color',(#452),#316);
#452 = PRESENTATION_STYLE_ASSIGNMENT((#453));
#453 = SURFACE_STYLE_USAGE(.BOTH.,#454);
#454 = SURFACE_SIDE_STYLE('',(#455));
#455 = SURFACE_STYLE_FILL_AREA(#456);
#456 = FILL_AREA_STYLE('',(#457));
#457 = FILL_AREA_STYLE_COLOUR('',#364);
#458 = STYLED_ITEM('color',(#459),#341);
#459 = PRESENTATION_STYLE_ASSIGNMENT((#460));
#460 = SURFACE_STYLE_USAGE(.BOTH.,#461);
#461 = SURFACE_SIDE_STYLE('',(#462));
#462 = SURFACE_STYLE_FILL_AREA(#463);
#463 = FILL_AREA_STYLE('',(#464));
#464 = FILL_AREA_STYLE_COLOUR('',#364);
ENDSEC;
END-ISO-10303-21;
