ISO-10303-21;
HEADER;
/* RV_Disc_D7mm_W4.9mm_P5mm.step 3D STEP model for use in ECAD systems
 * Copyright (C) 2019, kicad StepUp
 * 
 * This work is licensed under the [Creative Commons CC-BY-SA 4.0 License](https://creativecommons.org/licenses/by-sa/4.0/legalcode), 
 * with the following exception:
 * To the extent that the creation of electronic designs that use 'Licensed Material' can be considered to be 'Adapted Material', 
 * then the copyright holder waives article 3 of the license with respect to these designs and any generated files which use data provided 
 * as part of the 'Licensed Material'.
 * You are free to use the library data in your own projects without the obligation to share your project files under this or any other license agreement.
 * However, if you wish to redistribute these libraries, or parts thereof (including in modified form) as a collection then the exception above does not apply. 
 * Please refer to https://github.com/KiCad/kicad-packages3D/blob/master/LICENSE.md for further clarification of the exception.
 * Disclaimer of Warranties and Limitation of Liability.
 * These libraries are provided in the hope that they will be useful, but are provided without warranty of any kind, express or implied.
 * *USE 3D CAD DATA AT YOUR OWN RISK*
 * *DO NOT RELY UPON ANY INFORMATION FOUND HERE WITHOUT INDEPENDENT VERIFICATION.*
 * 
 */

FILE_DESCRIPTION(
/* description */ ('model of RV_Disc_D7mm_W4.9mm_P5mm'),
/* implementation_level */ '2;1');

FILE_NAME(
/* name */ 'RV_Disc_D7mm_W4.9mm_P5mm.step',
/* time_stamp */ '2019-01-22T12:56:26',
/* author */ ('kicad StepUp','ksu'),
/* organization */ ('FreeCAD'),
/* preprocessor_version */ 'OCC',
/* originating_system */ 'kicad StepUp',
/* authorisation */ '');

FILE_SCHEMA(('AUTOMOTIVE_DESIGN { 1 0 10303 214 1 1 1 1 }'));
ENDSEC;

DATA;
#1 = APPLICATION_PROTOCOL_DEFINITION('international standard',
'automotive_design',2000,#2);
#2 = APPLICATION_CONTEXT(
'core data for automotive mechanical design processes');
#3 = SHAPE_DEFINITION_REPRESENTATION(#4,#10);
#4 = PRODUCT_DEFINITION_SHAPE('','',#5);
#5 = PRODUCT_DEFINITION('design','',#6,#9);
#6 = PRODUCT_DEFINITION_FORMATION('','',#7);
#7 = PRODUCT('RV_Disc_D7mm_W49mm_P5mm','RV_Disc_D7mm_W49mm_P5mm','',(#8)
);
#8 = PRODUCT_CONTEXT('',#2,'mechanical');
#9 = PRODUCT_DEFINITION_CONTEXT('part definition',#2,'design');
#10 = ADVANCED_BREP_SHAPE_REPRESENTATION('',(#11,#15),#406);
#11 = AXIS2_PLACEMENT_3D('',#12,#13,#14);
#12 = CARTESIAN_POINT('',(0.,0.,0.));
#13 = DIRECTION('',(0.,0.,1.));
#14 = DIRECTION('',(1.,0.,-0.));
#15 = MANIFOLD_SOLID_BREP('',#16);
#16 = CLOSED_SHELL('',(#17,#50,#152,#266,#275,#301,#310,#336,#362,#388,
#397));
#17 = ADVANCED_FACE('',(#18),#45,.T.);
#18 = FACE_BOUND('',#19,.F.);
#19 = EDGE_LOOP('',(#20,#30,#37,#38));
#20 = ORIENTED_EDGE('',*,*,#21,.T.);
#21 = EDGE_CURVE('',#22,#24,#26,.T.);
#22 = VERTEX_POINT('',#23);
#23 = CARTESIAN_POINT('',(6.,-0.940243902439,3.53));
#24 = VERTEX_POINT('',#25);
#25 = CARTESIAN_POINT('',(6.,-1.059756097561,3.53));
#26 = LINE('',#27,#28);
#27 = CARTESIAN_POINT('',(6.,1.45,3.53));
#28 = VECTOR('',#29,1.);
#29 = DIRECTION('',(0.,-1.,0.));
#30 = ORIENTED_EDGE('',*,*,#31,.T.);
#31 = EDGE_CURVE('',#24,#24,#32,.T.);
#32 = CIRCLE('',#33,3.5);
#33 = AXIS2_PLACEMENT_3D('',#34,#35,#36);
#34 = CARTESIAN_POINT('',(2.5,-1.059756097561,3.53));
#35 = DIRECTION('',(0.,-1.,0.));
#36 = DIRECTION('',(1.,0.,0.));
#37 = ORIENTED_EDGE('',*,*,#21,.F.);
#38 = ORIENTED_EDGE('',*,*,#39,.F.);
#39 = EDGE_CURVE('',#22,#22,#40,.T.);
#40 = CIRCLE('',#41,3.5);
#41 = AXIS2_PLACEMENT_3D('',#42,#43,#44);
#42 = CARTESIAN_POINT('',(2.5,-0.940243902439,3.53));
#43 = DIRECTION('',(0.,-1.,0.));
#44 = DIRECTION('',(1.,0.,0.));
#45 = CYLINDRICAL_SURFACE('',#46,3.5);
#46 = AXIS2_PLACEMENT_3D('',#47,#48,#49);
#47 = CARTESIAN_POINT('',(2.5,1.45,3.53));
#48 = DIRECTION('',(0.,1.,0.));
#49 = DIRECTION('',(1.,0.,0.));
#50 = ADVANCED_FACE('',(#51,#71),#135,.T.);
#51 = FACE_BOUND('',#52,.F.);
#52 = EDGE_LOOP('',(#53,#54,#63,#70));
#53 = ORIENTED_EDGE('',*,*,#39,.T.);
#54 = ORIENTED_EDGE('',*,*,#55,.T.);
#55 = EDGE_CURVE('',#22,#56,#58,.T.);
#56 = VERTEX_POINT('',#57);
#57 = CARTESIAN_POINT('',(3.609756097561,1.45,3.53));
#58 = CIRCLE('',#59,2.390243902439);
#59 = AXIS2_PLACEMENT_3D('',#60,#61,#62);
#60 = CARTESIAN_POINT('',(3.609756097561,-0.940243902439,3.53));
#61 = DIRECTION('',(0.,0.,1.));
#62 = DIRECTION('',(1.,0.,0.));
#63 = ORIENTED_EDGE('',*,*,#64,.F.);
#64 = EDGE_CURVE('',#56,#56,#65,.T.);
#65 = CIRCLE('',#66,1.109756097561);
#66 = AXIS2_PLACEMENT_3D('',#67,#68,#69);
#67 = CARTESIAN_POINT('',(2.5,1.45,3.53));
#68 = DIRECTION('',(0.,-1.,0.));
#69 = DIRECTION('',(1.,0.,0.));
#70 = ORIENTED_EDGE('',*,*,#55,.F.);
#71 = FACE_BOUND('',#72,.F.);
#72 = EDGE_LOOP('',(#73,#112));
#73 = ORIENTED_EDGE('',*,*,#74,.T.);
#74 = EDGE_CURVE('',#75,#77,#79,.T.);
#75 = VERTEX_POINT('',#76);
#76 = CARTESIAN_POINT('',(0.27,0.,1.08759432087));
#77 = VERTEX_POINT('',#78);
#78 = CARTESIAN_POINT('',(-0.244574579698,0.114382144435,1.780498660673)
);
#79 = B_SPLINE_CURVE_WITH_KNOTS('',7,(#80,#81,#82,#83,#84,#85,#86,#87,
#88,#89,#90,#91,#92,#93,#94,#95,#96,#97,#98,#99,#100,#101,#102,#103,
#104,#105,#106,#107,#108,#109,#110,#111),.UNSPECIFIED.,.F.,.F.,(8,6,
6,6,6,8),(0.,0.12223700664,0.276389733664,0.628007856602,
0.860877331318,1.),.UNSPECIFIED.);
#80 = CARTESIAN_POINT('',(0.27,-5.551115123126E-17,1.08759432087));
#81 = CARTESIAN_POINT('',(0.27,-1.737080943824E-02,1.077530134075));
#82 = CARTESIAN_POINT('',(0.268696280548,-3.485789165237E-02,
1.068867559307));
#83 = CARTESIAN_POINT('',(0.266056950879,-5.232900216904E-02,
1.06169238942));
#84 = CARTESIAN_POINT('',(0.262070845318,-6.96414329749E-02,
1.056074039572));
#85 = CARTESIAN_POINT('',(0.256749931771,-8.664769948259E-02,
1.052061894741));
#86 = CARTESIAN_POINT('',(0.250131720209,-0.103201227497,1.049681657233)
);
#87 = CARTESIAN_POINT('',(0.232381997556,-0.13929017378,1.047985918028)
);
#88 = CARTESIAN_POINT('',(0.220520353222,-0.15848141356,1.049632640771)
);
#89 = CARTESIAN_POINT('',(0.206825701061,-0.176453110227,1.053871643164)
);
#90 = CARTESIAN_POINT('',(0.191487030438,-0.192961671855,1.060631452009)
);
#91 = CARTESIAN_POINT('',(0.174733461969,-0.207815907005,1.06978593888)
);
#92 = CARTESIAN_POINT('',(0.156815772084,-0.22088131102,1.081169575839)
);
#93 = CARTESIAN_POINT('',(9.504675849917E-02,-0.257608465613,
1.125206040976));
#94 = CARTESIAN_POINT('',(4.742865211081E-02,-0.2733738993,
1.166387888472));
#95 = CARTESIAN_POINT('',(-1.989760226483E-03,-0.278542818659,
1.215945075201));
#96 = CARTESIAN_POINT('',(-5.045894242334E-02,-0.273532662227,
1.271379958403));
#97 = CARTESIAN_POINT('',(-9.596641092927E-02,-0.259359421043,
1.330528587572));
#98 = CARTESIAN_POINT('',(-0.137024982568,-0.237123947069,1.391483772671
));
#99 = CARTESIAN_POINT('',(-0.195716104503,-0.188461880634,1.492489636038
));
#100 = CARTESIAN_POINT('',(-0.216542365727,-0.166015334939,
1.532588049369));
#101 = CARTESIAN_POINT('',(-0.234450780025,-0.140819305421,
1.571970015806));
#102 = CARTESIAN_POINT('',(-0.249061450999,-0.113201953173,
1.609954800658));
#103 = CARTESIAN_POINT('',(-0.25998162761,-8.355828222677E-02,
1.645707861169));
#104 = CARTESIAN_POINT('',(-0.266818913677,-5.237693993397E-02,
1.678176484343));
#105 = CARTESIAN_POINT('',(-0.270681385805,-1.113941834524E-03,
1.722906166085));
#106 = CARTESIAN_POINT('',(-0.270548012593,1.837560100536E-02,
1.738033900984));
#107 = CARTESIAN_POINT('',(-0.268766282947,3.803312103147E-02,
1.751298236251));
#108 = CARTESIAN_POINT('',(-0.265279410979,5.768091642783E-02,
1.76241879828));
#109 = CARTESIAN_POINT('',(-0.260060462548,7.711011543149E-02,
1.771122809906));
#110 = CARTESIAN_POINT('',(-0.253129914602,9.608892700408E-02,
1.777187383822));
#111 = CARTESIAN_POINT('',(-0.244574579698,0.114382144435,1.780498660673
));
#112 = ORIENTED_EDGE('',*,*,#113,.T.);
#113 = EDGE_CURVE('',#77,#75,#114,.T.);
#114 = B_SPLINE_CURVE_WITH_KNOTS('',7,(#115,#116,#117,#118,#119,#120,
#121,#122,#123,#124,#125,#126,#127,#128,#129,#130,#131,#132,#133,
#134),.UNSPECIFIED.,.F.,.F.,(8,6,6,8),(0.,0.269116832709,
0.559928607305,1.),.UNSPECIFIED.);
#115 = CARTESIAN_POINT('',(-0.244574579698,0.114382144435,1.780498660673
));
#116 = CARTESIAN_POINT('',(-0.231851126443,0.141587730128,1.785423175808
));
#117 = CARTESIAN_POINT('',(-0.215519442224,0.167308360048,1.784263611318
));
#118 = CARTESIAN_POINT('',(-0.195883634362,0.190689105915,1.776603092417
));
#119 = CARTESIAN_POINT('',(-0.173539160622,0.211085407124,1.762683171576
));
#120 = CARTESIAN_POINT('',(-0.149186543456,0.228154658341,1.743342336545
));
#121 = CARTESIAN_POINT('',(-0.123493134856,0.241768668737,1.719567771023
));
#122 = CARTESIAN_POINT('',(-6.848734697948E-02,0.262957703507,
1.66294123506));
#123 = CARTESIAN_POINT('',(-3.900176546413E-02,0.26997589241,
1.629461885996));
#124 = CARTESIAN_POINT('',(-9.2086371035E-03,0.273067572064,
1.592997332155));
#125 = CARTESIAN_POINT('',(2.038639753727E-02,0.272377675308,
1.554536140427));
#126 = CARTESIAN_POINT('',(4.935684537208E-02,0.268066336371,
1.514885146048));
#127 = CARTESIAN_POINT('',(7.732952909265E-02,0.260291862369,
1.474715813118));
#128 = CARTESIAN_POINT('',(0.144223530191,0.232387888491,1.373905770455)
);
#129 = CARTESIAN_POINT('',(0.181318850377,0.207998016341,1.313456040996)
);
#130 = CARTESIAN_POINT('',(0.213993061193,0.176541631598,1.255275698464)
);
#131 = CARTESIAN_POINT('',(0.240797341716,0.138592924879,1.201357638729)
);
#132 = CARTESIAN_POINT('',(0.260026920351,9.512546035381E-02,
1.153944719868));
#133 = CARTESIAN_POINT('',(0.27,4.80424897274E-02,1.115428866661));
#134 = CARTESIAN_POINT('',(0.27,-3.306546357698E-17,1.08759432087));
#135 = SURFACE_OF_REVOLUTION('',#136,#149);
#136 = B_SPLINE_CURVE_WITH_KNOTS('',6,(#137,#138,#139,#140,#141,#142,
#143,#144,#145,#146,#147,#148),.UNSPECIFIED.,.F.,.F.,(7,5,7),(0.,
0.785398163397,1.570796326795),.UNSPECIFIED.);
#137 = CARTESIAN_POINT('',(6.,-0.940243902439,3.53));
#138 = CARTESIAN_POINT('',(6.,-0.627361707264,3.53));
#139 = CARTESIAN_POINT('',(5.950852772493,-0.314480034689,3.53));
#140 = CARTESIAN_POINT('',(5.852557037108,-1.124533557558E-02,3.53));
#141 = CARTESIAN_POINT('',(5.707643306126,0.272679557511,3.53));
#142 = CARTESIAN_POINT('',(5.521154891586,0.528672647745,3.53));
#143 = CARTESIAN_POINT('',(5.078672647745,0.971154891586,3.53));
#144 = CARTESIAN_POINT('',(4.822679557511,1.157643306126,3.53));
#145 = CARTESIAN_POINT('',(4.538754664424,1.302557037108,3.53));
#146 = CARTESIAN_POINT('',(4.235519965311,1.400852772493,3.53));
#147 = CARTESIAN_POINT('',(3.922638292736,1.45,3.53));
#148 = CARTESIAN_POINT('',(3.609756097561,1.45,3.53));
#149 = AXIS1_PLACEMENT('',#150,#151);
#150 = CARTESIAN_POINT('',(2.5,-0.940243902439,3.53));
#151 = DIRECTION('',(0.,1.,0.));
#152 = ADVANCED_FACE('',(#153,#173),#249,.T.);
#153 = FACE_BOUND('',#154,.T.);
#154 = EDGE_LOOP('',(#155,#156,#165,#172));
#155 = ORIENTED_EDGE('',*,*,#31,.T.);
#156 = ORIENTED_EDGE('',*,*,#157,.T.);
#157 = EDGE_CURVE('',#24,#158,#160,.T.);
#158 = VERTEX_POINT('',#159);
#159 = CARTESIAN_POINT('',(3.609756097561,-3.45,3.53));
#160 = CIRCLE('',#161,2.390243902439);
#161 = AXIS2_PLACEMENT_3D('',#162,#163,#164);
#162 = CARTESIAN_POINT('',(3.609756097561,-1.059756097561,3.53));
#163 = DIRECTION('',(0.,0.,-1.));
#164 = DIRECTION('',(1.,0.,0.));
#165 = ORIENTED_EDGE('',*,*,#166,.F.);
#166 = EDGE_CURVE('',#158,#158,#167,.T.);
#167 = CIRCLE('',#168,1.109756097561);
#168 = AXIS2_PLACEMENT_3D('',#169,#170,#171);
#169 = CARTESIAN_POINT('',(2.5,-3.45,3.53));
#170 = DIRECTION('',(0.,-1.,0.));
#171 = DIRECTION('',(1.,0.,0.));
#172 = ORIENTED_EDGE('',*,*,#157,.F.);
#173 = FACE_BOUND('',#174,.T.);
#174 = EDGE_LOOP('',(#175,#196));
#175 = ORIENTED_EDGE('',*,*,#176,.T.);
#176 = EDGE_CURVE('',#177,#179,#181,.T.);
#177 = VERTEX_POINT('',#178);
#178 = CARTESIAN_POINT('',(5.27,-2.,1.722973298082));
#179 = VERTEX_POINT('',#180);
#180 = CARTESIAN_POINT('',(5.010721891011,-1.730212970932,1.231351273257
));
#181 = B_SPLINE_CURVE_WITH_KNOTS('',7,(#182,#183,#184,#185,#186,#187,
#188,#189,#190,#191,#192,#193,#194,#195),.UNSPECIFIED.,.F.,.F.,(8,6,
8),(0.,0.572974296817,1.),.UNSPECIFIED.);
#182 = CARTESIAN_POINT('',(5.27,-2.,1.722973298082));
#183 = CARTESIAN_POINT('',(5.27,-1.964464500146,1.695145791595));
#184 = CARTESIAN_POINT('',(5.264543442211,-1.929643531931,1.661315714002
));
#185 = CARTESIAN_POINT('',(5.254026379645,-1.896444634963,1.623080995172
));
#186 = CARTESIAN_POINT('',(5.238968869045,-1.865552946778,1.581919208057
));
#187 = CARTESIAN_POINT('',(5.219892986773,-1.837499933929,1.538958872785
));
#188 = CARTESIAN_POINT('',(5.197298500524,-1.812709495378,1.495097325845
));
#189 = CARTESIAN_POINT('',(5.152526689492,-1.775836989594,1.418250674334
));
#190 = CARTESIAN_POINT('',(5.131727571932,-1.762141471326,1.385372737817
));
#191 = CARTESIAN_POINT('',(5.109459936633,-1.75066740492,1.352762377255)
);
#192 = CARTESIAN_POINT('',(5.085951186777,-1.741584664472,1.320734042074
));
#193 = CARTESIAN_POINT('',(5.061457197523,-1.735056370754,1.289603272612
));
#194 = CARTESIAN_POINT('',(5.03627024232,-1.731228314921,1.259696112268)
);
#195 = CARTESIAN_POINT('',(5.010721891011,-1.730212970932,1.231351273257
));
#196 = ORIENTED_EDGE('',*,*,#197,.T.);
#197 = EDGE_CURVE('',#179,#177,#198,.T.);
#198 = B_SPLINE_CURVE_WITH_KNOTS('',7,(#199,#200,#201,#202,#203,#204,
#205,#206,#207,#208,#209,#210,#211,#212,#213,#214,#215,#216,#217,
#218,#219,#220,#221,#222,#223,#224,#225,#226,#227,#228,#229,#230,
#231,#232,#233,#234,#235,#236,#237,#238,#239,#240,#241,#242,#243,
#244,#245,#246,#247,#248),.UNSPECIFIED.,.F.,.F.,(8,6,6,6,6,6,6,6,8),
(0.,0.14561274585,0.239146812425,0.351293168324,0.41147185328,
0.587471843138,0.80200415227,0.883213575976,1.),.UNSPECIFIED.);
#199 = CARTESIAN_POINT('',(5.010721891011,-1.730212970932,1.231351273257
));
#200 = CARTESIAN_POINT('',(4.984787858288,-1.729182299171,1.20257853667)
);
#201 = CARTESIAN_POINT('',(4.958484019844,-1.731050142114,1.175418554253
));
#202 = CARTESIAN_POINT('',(4.932163253995,-1.735932552113,1.150231603775
));
#203 = CARTESIAN_POINT('',(4.90623083905,-1.74390910861,1.127401488341)
);
#204 = CARTESIAN_POINT('',(4.88114993729,-1.754985687858,1.107330880154)
);
#205 = CARTESIAN_POINT('',(4.857417670948,-1.769059836152,1.090410699517
));
#206 = CARTESIAN_POINT('',(4.821440589981,-1.796698764729,1.06832576506)
);
#207 = CARTESIAN_POINT('',(4.808122345462,-1.808645755087,1.06112061));
#208 = CARTESIAN_POINT('',(4.79568640485,-1.821664343616,1.055435310505)
);
#209 = CARTESIAN_POINT('',(4.784254904031,-1.835665104895,1.051341902435
));
#210 = CARTESIAN_POINT('',(4.773936868057,-1.850537094568,1.048892645959
));
#211 = CARTESIAN_POINT('',(4.764822312598,-1.866150381794,1.048115460628
));
#212 = CARTESIAN_POINT('',(4.747569113742,-1.901792041851,1.050081136863
));
#213 = CARTESIAN_POINT('',(4.739983070441,-1.922086129986,1.053555502731
));
#214 = CARTESIAN_POINT('',(4.734333414674,-1.942988819302,1.059433126088
));
#215 = CARTESIAN_POINT('',(4.730674841022,-1.964232789979,1.067654494083
));
#216 = CARTESIAN_POINT('',(4.729005709122,-1.98555591214,1.07811088372)
);
#217 = CARTESIAN_POINT('',(4.729276617196,-2.006714998242,1.090655559772
));
#218 = CARTESIAN_POINT('',(4.732544618076,-2.038642382768,1.112874365283
));
#219 = CARTESIAN_POINT('',(4.734220373224,-2.04968343125,1.1211858263));
#220 = CARTESIAN_POINT('',(4.736417895287,-2.060583292939,1.130023658577
));
#221 = CARTESIAN_POINT('',(4.739121879214,-2.071311990573,1.139360433266
));
#222 = CARTESIAN_POINT('',(4.742315088673,-2.081842223029,1.149167733862
));
#223 = CARTESIAN_POINT('',(4.745978980227,-2.092149341304,1.159416673034
));
#224 = CARTESIAN_POINT('',(4.762130168456,-2.131638835988,1.201259973285
));
#225 = CARTESIAN_POINT('',(4.778022852868,-2.158958098448,1.235960100878
));
#226 = CARTESIAN_POINT('',(4.797292283245,-2.183638476417,1.273471377797
));
#227 = CARTESIAN_POINT('',(4.819414359975,-2.205310238603,1.313078659601
));
#228 = CARTESIAN_POINT('',(4.843888320113,-2.223722020279,1.35409748569)
);
#229 = CARTESIAN_POINT('',(4.870262624952,-2.238690270174,1.395869081218
));
#230 = CARTESIAN_POINT('',(4.932074952297,-2.263876080634,1.48871562405)
);
#231 = CARTESIAN_POINT('',(4.968152806301,-2.272303341846,1.539704081934
));
#232 = CARTESIAN_POINT('',(5.005663560481,-2.275087991777,1.589570154306
));
#233 = CARTESIAN_POINT('',(5.043850798106,-2.271865689148,1.636886298599
));
#234 = CARTESIAN_POINT('',(5.081756342175,-2.262285716718,1.679799392898
));
#235 = CARTESIAN_POINT('',(5.118089170599,-2.246099500865,1.715800380245
));
#236 = CARTESIAN_POINT('',(5.163899736563,-2.215099004566,1.75283872156)
);
#237 = CARTESIAN_POINT('',(5.176023772443,-2.205690926914,1.761691978656
));
#238 = CARTESIAN_POINT('',(5.187600183446,-2.19541395821,1.769102198422)
);
#239 = CARTESIAN_POINT('',(5.198534479674,-2.184311894143,1.774958746678
));
#240 = CARTESIAN_POINT('',(5.20873552592,-2.17244669092,1.779176760444)
);
#241 = CARTESIAN_POINT('',(5.218121112329,-2.15989941207,1.781707830109)
);
#242 = CARTESIAN_POINT('',(5.238850756014,-2.127891595025,1.783762777509
));
#243 = CARTESIAN_POINT('',(5.249257536889,-2.107801382463,1.781484126722
));
#244 = CARTESIAN_POINT('',(5.257636630088,-2.086802517574,1.775699958024
));
#245 = CARTESIAN_POINT('',(5.263885866868,-2.065225332235,1.766606763313
));
#246 = CARTESIAN_POINT('',(5.267990466425,-2.043386231742,1.754531712056
));
#247 = CARTESIAN_POINT('',(5.27,-2.021564758804,1.739860452279));
#248 = CARTESIAN_POINT('',(5.27,-2.,1.722973298082));
#249 = SURFACE_OF_REVOLUTION('',#250,#263);
#250 = B_SPLINE_CURVE_WITH_KNOTS('',6,(#251,#252,#253,#254,#255,#256,
#257,#258,#259,#260,#261,#262),.UNSPECIFIED.,.F.,.F.,(7,5,7),(0.,
0.785398163397,1.570796326795),.UNSPECIFIED.);
#251 = CARTESIAN_POINT('',(6.,-1.059756097561,3.53));
#252 = CARTESIAN_POINT('',(6.,-1.372638292736,3.53));
#253 = CARTESIAN_POINT('',(5.950852772493,-1.685519965311,3.53));
#254 = CARTESIAN_POINT('',(5.852557037108,-1.988754664424,3.53));
#255 = CARTESIAN_POINT('',(5.707643306126,-2.272679557511,3.53));
#256 = CARTESIAN_POINT('',(5.521154891586,-2.528672647745,3.53));
#257 = CARTESIAN_POINT('',(5.078672647745,-2.971154891586,3.53));
#258 = CARTESIAN_POINT('',(4.822679557511,-3.157643306126,3.53));
#259 = CARTESIAN_POINT('',(4.538754664424,-3.302557037108,3.53));
#260 = CARTESIAN_POINT('',(4.235519965311,-3.400852772493,3.53));
#261 = CARTESIAN_POINT('',(3.922638292736,-3.45,3.53));
#262 = CARTESIAN_POINT('',(3.609756097561,-3.45,3.53));
#263 = AXIS1_PLACEMENT('',#264,#265);
#264 = CARTESIAN_POINT('',(2.5,-1.059756097561,3.53));
#265 = DIRECTION('',(0.,-1.,0.));
#266 = ADVANCED_FACE('',(#267),#270,.F.);
#267 = FACE_BOUND('',#268,.F.);
#268 = EDGE_LOOP('',(#269));
#269 = ORIENTED_EDGE('',*,*,#64,.T.);
#270 = PLANE('',#271);
#271 = AXIS2_PLACEMENT_3D('',#272,#273,#274);
#272 = CARTESIAN_POINT('',(2.5,1.45,3.53));
#273 = DIRECTION('',(-0.,-1.,-0.));
#274 = DIRECTION('',(0.,0.,-1.));
#275 = ADVANCED_FACE('',(#276),#296,.T.);
#276 = FACE_BOUND('',#277,.T.);
#277 = EDGE_LOOP('',(#278,#279,#287,#294,#295));
#278 = ORIENTED_EDGE('',*,*,#113,.T.);
#279 = ORIENTED_EDGE('',*,*,#280,.T.);
#280 = EDGE_CURVE('',#75,#281,#283,.T.);
#281 = VERTEX_POINT('',#282);
#282 = CARTESIAN_POINT('',(0.27,-6.419732746252E-33,-2.892));
#283 = LINE('',#284,#285);
#284 = CARTESIAN_POINT('',(0.27,0.,3.53));
#285 = VECTOR('',#286,1.);
#286 = DIRECTION('',(-0.,-0.,-1.));
#287 = ORIENTED_EDGE('',*,*,#288,.T.);
#288 = EDGE_CURVE('',#281,#281,#289,.T.);
#289 = CIRCLE('',#290,0.27);
#290 = AXIS2_PLACEMENT_3D('',#291,#292,#293);
#291 = CARTESIAN_POINT('',(-7.243018313321E-31,3.818477440422E-31,-2.892
));
#292 = DIRECTION('',(1.127201796441E-31,-5.94419698727E-32,1.));
#293 = DIRECTION('',(1.,-1.438027691809E-30,-1.127201796441E-31));
#294 = ORIENTED_EDGE('',*,*,#280,.F.);
#295 = ORIENTED_EDGE('',*,*,#74,.T.);
#296 = CYLINDRICAL_SURFACE('',#297,0.27);
#297 = AXIS2_PLACEMENT_3D('',#298,#299,#300);
#298 = CARTESIAN_POINT('',(0.,0.,3.53));
#299 = DIRECTION('',(0.,0.,1.));
#300 = DIRECTION('',(1.,0.,0.));
#301 = ADVANCED_FACE('',(#302),#305,.T.);
#302 = FACE_BOUND('',#303,.T.);
#303 = EDGE_LOOP('',(#304));
#304 = ORIENTED_EDGE('',*,*,#166,.T.);
#305 = PLANE('',#306);
#306 = AXIS2_PLACEMENT_3D('',#307,#308,#309);
#307 = CARTESIAN_POINT('',(2.5,-3.45,3.53));
#308 = DIRECTION('',(-0.,-1.,-0.));
#309 = DIRECTION('',(0.,0.,-1.));
#310 = ADVANCED_FACE('',(#311),#331,.T.);
#311 = FACE_BOUND('',#312,.T.);
#312 = EDGE_LOOP('',(#313,#314,#322,#329,#330));
#313 = ORIENTED_EDGE('',*,*,#176,.F.);
#314 = ORIENTED_EDGE('',*,*,#315,.T.);
#315 = EDGE_CURVE('',#177,#316,#318,.T.);
#316 = VERTEX_POINT('',#317);
#317 = CARTESIAN_POINT('',(5.27,-2.,-2.892));
#318 = LINE('',#319,#320);
#319 = CARTESIAN_POINT('',(5.27,-2.,3.53));
#320 = VECTOR('',#321,1.);
#321 = DIRECTION('',(-0.,-0.,-1.));
#322 = ORIENTED_EDGE('',*,*,#323,.T.);
#323 = EDGE_CURVE('',#316,#316,#324,.T.);
#324 = CIRCLE('',#325,0.27);
#325 = AXIS2_PLACEMENT_3D('',#326,#327,#328);
#326 = CARTESIAN_POINT('',(5.,-2.,-2.892));
#327 = DIRECTION('',(0.,0.,1.));
#328 = DIRECTION('',(1.,0.,0.));
#329 = ORIENTED_EDGE('',*,*,#315,.F.);
#330 = ORIENTED_EDGE('',*,*,#197,.F.);
#331 = CYLINDRICAL_SURFACE('',#332,0.27);
#332 = AXIS2_PLACEMENT_3D('',#333,#334,#335);
#333 = CARTESIAN_POINT('',(5.,-2.,3.53));
#334 = DIRECTION('',(0.,0.,1.));
#335 = DIRECTION('',(1.,0.,0.));
#336 = ADVANCED_FACE('',(#337),#357,.T.);
#337 = FACE_BOUND('',#338,.F.);
#338 = EDGE_LOOP('',(#339,#348,#349,#350));
#339 = ORIENTED_EDGE('',*,*,#340,.F.);
#340 = EDGE_CURVE('',#281,#341,#343,.T.);
#341 = VERTEX_POINT('',#342);
#342 = CARTESIAN_POINT('',(0.162,1.553069907154E-31,-3.));
#343 = CIRCLE('',#344,0.108);
#344 = AXIS2_PLACEMENT_3D('',#345,#346,#347);
#345 = CARTESIAN_POINT('',(0.162,1.488872579691E-31,-2.892));
#346 = DIRECTION('',(1.438027691809E-30,1.,5.94419698727E-32));
#347 = DIRECTION('',(1.,-1.438027691809E-30,-1.127201796441E-31));
#348 = ORIENTED_EDGE('',*,*,#288,.T.);
#349 = ORIENTED_EDGE('',*,*,#340,.T.);
#350 = ORIENTED_EDGE('',*,*,#351,.F.);
#351 = EDGE_CURVE('',#341,#341,#352,.T.);
#352 = CIRCLE('',#353,0.162);
#353 = AXIS2_PLACEMENT_3D('',#354,#355,#356);
#354 = CARTESIAN_POINT('',(-7.364756107337E-31,3.882674767885E-31,-3.));
#355 = DIRECTION('',(1.127201796441E-31,-5.94419698727E-32,1.));
#356 = DIRECTION('',(1.,-1.438027691809E-30,-1.127201796441E-31));
#357 = TOROIDAL_SURFACE('',#358,0.162,0.108);
#358 = AXIS2_PLACEMENT_3D('',#359,#360,#361);
#359 = CARTESIAN_POINT('',(-7.243018313321E-31,3.818477440422E-31,-2.892
));
#360 = DIRECTION('',(-1.127201796441E-31,5.94419698727E-32,-1.));
#361 = DIRECTION('',(1.,-1.438027691809E-30,-1.127201796441E-31));
#362 = ADVANCED_FACE('',(#363),#383,.T.);
#363 = FACE_BOUND('',#364,.F.);
#364 = EDGE_LOOP('',(#365,#374,#375,#376));
#365 = ORIENTED_EDGE('',*,*,#366,.F.);
#366 = EDGE_CURVE('',#316,#367,#369,.T.);
#367 = VERTEX_POINT('',#368);
#368 = CARTESIAN_POINT('',(5.162,-2.,-3.));
#369 = CIRCLE('',#370,0.108);
#370 = AXIS2_PLACEMENT_3D('',#371,#372,#373);
#371 = CARTESIAN_POINT('',(5.162,-2.,-2.892));
#372 = DIRECTION('',(-0.,1.,0.));
#373 = DIRECTION('',(1.,0.,0.));
#374 = ORIENTED_EDGE('',*,*,#323,.T.);
#375 = ORIENTED_EDGE('',*,*,#366,.T.);
#376 = ORIENTED_EDGE('',*,*,#377,.F.);
#377 = EDGE_CURVE('',#367,#367,#378,.T.);
#378 = CIRCLE('',#379,0.162);
#379 = AXIS2_PLACEMENT_3D('',#380,#381,#382);
#380 = CARTESIAN_POINT('',(5.,-2.,-3.));
#381 = DIRECTION('',(0.,0.,1.));
#382 = DIRECTION('',(1.,0.,0.));
#383 = TOROIDAL_SURFACE('',#384,0.162,0.108);
#384 = AXIS2_PLACEMENT_3D('',#385,#386,#387);
#385 = CARTESIAN_POINT('',(5.,-2.,-2.892));
#386 = DIRECTION('',(-0.,-0.,-1.));
#387 = DIRECTION('',(1.,0.,0.));
#388 = ADVANCED_FACE('',(#389),#392,.F.);
#389 = FACE_BOUND('',#390,.F.);
#390 = EDGE_LOOP('',(#391));
#391 = ORIENTED_EDGE('',*,*,#351,.T.);
#392 = PLANE('',#393);
#393 = AXIS2_PLACEMENT_3D('',#394,#395,#396);
#394 = CARTESIAN_POINT('',(-1.978356673234E-17,1.865352890619E-17,-3.));
#395 = DIRECTION('',(1.127201796441E-31,-5.94419698727E-32,1.));
#396 = DIRECTION('',(1.,0.,-1.127201796441E-31));
#397 = ADVANCED_FACE('',(#398),#401,.F.);
#398 = FACE_BOUND('',#399,.F.);
#399 = EDGE_LOOP('',(#400));
#400 = ORIENTED_EDGE('',*,*,#377,.T.);
#401 = PLANE('',#402);
#402 = AXIS2_PLACEMENT_3D('',#403,#404,#405);
#403 = CARTESIAN_POINT('',(5.,-2.,-3.));
#404 = DIRECTION('',(0.,0.,1.));
#405 = DIRECTION('',(1.,0.,0.));
#406 = ( GEOMETRIC_REPRESENTATION_CONTEXT(3)
GLOBAL_UNCERTAINTY_ASSIGNED_CONTEXT((#410)) GLOBAL_UNIT_ASSIGNED_CONTEXT
((#407,#408,#409)) REPRESENTATION_CONTEXT('Context #1',
'3D Context with UNIT and UNCERTAINTY') );
#407 = ( LENGTH_UNIT() NAMED_UNIT(*) SI_UNIT(.MILLI.,.METRE.) );
#408 = ( NAMED_UNIT(*) PLANE_ANGLE_UNIT() SI_UNIT($,.RADIAN.) );
#409 = ( NAMED_UNIT(*) SI_UNIT($,.STERADIAN.) SOLID_ANGLE_UNIT() );
#410 = UNCERTAINTY_MEASURE_WITH_UNIT(LENGTH_MEASURE(1.E-07),#407,
'distance_accuracy_value','confusion accuracy');
#411 = PRODUCT_RELATED_PRODUCT_CATEGORY('part',$,(#7));
#412 = MECHANICAL_DESIGN_GEOMETRIC_PRESENTATION_REPRESENTATION('',(#413,
#421,#428,#435,#442,#450,#457,#464,#471,#478,#485),#406);
#413 = STYLED_ITEM('color',(#414),#17);
#414 = PRESENTATION_STYLE_ASSIGNMENT((#415));
#415 = SURFACE_STYLE_USAGE(.BOTH.,#416);
#416 = SURFACE_SIDE_STYLE('',(#417));
#417 = SURFACE_STYLE_FILL_AREA(#418);
#418 = FILL_AREA_STYLE('',(#419));
#419 = FILL_AREA_STYLE_COLOUR('',#420);
#420 = COLOUR_RGB('',0.136999994516,0.402000010014,0.726999998093);
#421 = STYLED_ITEM('color',(#422),#50);
#422 = PRESENTATION_STYLE_ASSIGNMENT((#423));
#423 = SURFACE_STYLE_USAGE(.BOTH.,#424);
#424 = SURFACE_SIDE_STYLE('',(#425));
#425 = SURFACE_STYLE_FILL_AREA(#426);
#426 = FILL_AREA_STYLE('',(#427));
#427 = FILL_AREA_STYLE_COLOUR('',#420);
#428 = STYLED_ITEM('color',(#429),#152);
#429 = PRESENTATION_STYLE_ASSIGNMENT((#430));
#430 = SURFACE_STYLE_USAGE(.BOTH.,#431);
#431 = SURFACE_SIDE_STYLE('',(#432));
#432 = SURFACE_STYLE_FILL_AREA(#433);
#433 = FILL_AREA_STYLE('',(#434));
#434 = FILL_AREA_STYLE_COLOUR('',#420);
#435 = STYLED_ITEM('color',(#436),#266);
#436 = PRESENTATION_STYLE_ASSIGNMENT((#437));
#437 = SURFACE_STYLE_USAGE(.BOTH.,#438);
#438 = SURFACE_SIDE_STYLE('',(#439));
#439 = SURFACE_STYLE_FILL_AREA(#440);
#440 = FILL_AREA_STYLE('',(#441));
#441 = FILL_AREA_STYLE_COLOUR('',#420);
#442 = STYLED_ITEM('color',(#443),#275);
#443 = PRESENTATION_STYLE_ASSIGNMENT((#444));
#444 = SURFACE_STYLE_USAGE(.BOTH.,#445);
#445 = SURFACE_SIDE_STYLE('',(#446));
#446 = SURFACE_STYLE_FILL_AREA(#447);
#447 = FILL_AREA_STYLE('',(#448));
#448 = FILL_AREA_STYLE_COLOUR('',#449);
#449 = COLOUR_RGB('',0.824000000954,0.819999992847,0.78100001812);
#450 = STYLED_ITEM('color',(#451),#301);
#451 = PRESENTATION_STYLE_ASSIGNMENT((#452));
#452 = SURFACE_STYLE_USAGE(.BOTH.,#453);
#453 = SURFACE_SIDE_STYLE('',(#454));
#454 = SURFACE_STYLE_FILL_AREA(#455);
#455 = FILL_AREA_STYLE('',(#456));
#456 = FILL_AREA_STYLE_COLOUR('',#420);
#457 = STYLED_ITEM('color',(#458),#310);
#458 = PRESENTATION_STYLE_ASSIGNMENT((#459));
#459 = SURFACE_STYLE_USAGE(.BOTH.,#460);
#460 = SURFACE_SIDE_STYLE('',(#461));
#461 = SURFACE_STYLE_FILL_AREA(#462);
#462 = FILL_AREA_STYLE('',(#463));
#463 = FILL_AREA_STYLE_COLOUR('',#449);
#464 = STYLED_ITEM('color',(#465),#336);
#465 = PRESENTATION_STYLE_ASSIGNMENT((#466));
#466 = SURFACE_STYLE_USAGE(.BOTH.,#467);
#467 = SURFACE_SIDE_STYLE('',(#468));
#468 = SURFACE_STYLE_FILL_AREA(#469);
#469 = FILL_AREA_STYLE('',(#470));
#470 = FILL_AREA_STYLE_COLOUR('',#449);
#471 = STYLED_ITEM('color',(#472),#362);
#472 = PRESENTATION_STYLE_ASSIGNMENT((#473));
#473 = SURFACE_STYLE_USAGE(.BOTH.,#474);
#474 = SURFACE_SIDE_STYLE('',(#475));
#475 = SURFACE_STYLE_FILL_AREA(#476);
#476 = FILL_AREA_STYLE('',(#477));
#477 = FILL_AREA_STYLE_COLOUR('',#449);
#478 = STYLED_ITEM('color',(#479),#388);
#479 = PRESENTATION_STYLE_ASSIGNMENT((#480));
#480 = SURFACE_STYLE_USAGE(.BOTH.,#481);
#481 = SURFACE_SIDE_STYLE('',(#482));
#482 = SURFACE_STYLE_FILL_AREA(#483);
#483 = FILL_AREA_STYLE('',(#484));
#484 = FILL_AREA_STYLE_COLOUR('',#449);
#485 = STYLED_ITEM('color',(#486),#397);
#486 = PRESENTATION_STYLE_ASSIGNMENT((#487));
#487 = SURFACE_STYLE_USAGE(.BOTH.,#488);
#488 = SURFACE_SIDE_STYLE('',(#489));
#489 = SURFACE_STYLE_FILL_AREA(#490);
#490 = FILL_AREA_STYLE('',(#491));
#491 = FILL_AREA_STYLE_COLOUR('',#449);
ENDSEC;
END-ISO-10303-21;
