ISO-10303-21;
HEADER;
/* RV_Disc_D21.5mm_W7.9mm_P10mm.step 3D STEP model for use in ECAD systems
 * Copyright (C) 2018, kicad StepUp
 * 
 * This work is licensed under the [Creative Commons CC-BY-SA 4.0 License](https://creativecommons.org/licenses/by-sa/4.0/legalcode), 
 * with the following exception:
 * To the extent that the creation of electronic designs that use 'Licensed Material' can be considered to be 'Adapted Material', 
 * then the copyright holder waives article 3 of the license with respect to these designs and any generated files which use data provided 
 * as part of the 'Licensed Material'.
 * You are free to use the library data in your own projects without the obligation to share your project files under this or any other license agreement.
 * However, if you wish to redistribute these libraries, or parts thereof (including in modified form) as a collection then the exception above does not apply. 
 * Please refer to https://github.com/KiCad/kicad-packages3D/blob/master/LICENSE.md for further clarification of the exception.
 * Disclaimer of Warranties and Limitation of Liability.
 * These libraries are provided in the hope that they will be useful, but are provided without warranty of any kind, express or implied.
 * *USE 3D CAD DATA AT YOUR OWN RISK*
 * *DO NOT RELY UPON ANY INFORMATION FOUND HERE WITHOUT INDEPENDENT VERIFICATION.*
 * 
 */

FILE_DESCRIPTION(
/* description */ ('model of RV_Disc_D21.5mm_W7.9mm_P10mm'),
/* implementation_level */ '2;1');

FILE_NAME(
/* name */ 'RV_Disc_D21.5mm_W7.9mm_P10mm.step',
/* time_stamp */ '2018-11-11T21:06:22',
/* author */ ('kicad StepUp','ksu'),
/* organization */ ('FreeCAD'),
/* preprocessor_version */ 'OCC',
/* originating_system */ 'kicad StepUp',
/* authorisation */ '');

FILE_SCHEMA(('AUTOMOTIVE_DESIGN { 1 0 10303 214 1 1 1 1 }'));
ENDSEC;

DATA;
#1 = APPLICATION_PROTOCOL_DEFINITION('international standard',
'automotive_design',2000,#2);
#2 = APPLICATION_CONTEXT(
'core data for automotive mechanical design processes');
#3 = SHAPE_DEFINITION_REPRESENTATION(#4,#10);
#4 = PRODUCT_DEFINITION_SHAPE('','',#5);
#5 = PRODUCT_DEFINITION('design','',#6,#9);
#6 = PRODUCT_DEFINITION_FORMATION('','',#7);
#7 = PRODUCT('RV_Disc_D215mm_W79mm_P10mm','RV_Disc_D215mm_W79mm_P10mm',
'',(#8));
#8 = PRODUCT_CONTEXT('',#2,'mechanical');
#9 = PRODUCT_DEFINITION_CONTEXT('part definition',#2,'design');
#10 = ADVANCED_BREP_SHAPE_REPRESENTATION('',(#11,#15),#407);
#11 = AXIS2_PLACEMENT_3D('',#12,#13,#14);
#12 = CARTESIAN_POINT('',(0.E+000,0.E+000,0.E+000));
#13 = DIRECTION('',(0.E+000,0.E+000,1.));
#14 = DIRECTION('',(1.,0.E+000,-0.E+000));
#15 = MANIFOLD_SOLID_BREP('',#16);
#16 = CLOSED_SHELL('',(#17,#50,#154,#267,#276,#302,#311,#337,#363,#389,
#398));
#17 = ADVANCED_FACE('',(#18),#45,.T.);
#18 = FACE_BOUND('',#19,.F.);
#19 = EDGE_LOOP('',(#20,#30,#37,#38));
#20 = ORIENTED_EDGE('',*,*,#21,.T.);
#21 = EDGE_CURVE('',#22,#24,#26,.T.);
#22 = VERTEX_POINT('',#23);
#23 = CARTESIAN_POINT('',(15.75,-2.003658536585,10.78));
#24 = VERTEX_POINT('',#25);
#25 = CARTESIAN_POINT('',(15.75,-2.196341463415,10.78));
#26 = LINE('',#27,#28);
#27 = CARTESIAN_POINT('',(15.75,1.85,10.78));
#28 = VECTOR('',#29,1.);
#29 = DIRECTION('',(0.E+000,-1.,0.E+000));
#30 = ORIENTED_EDGE('',*,*,#31,.T.);
#31 = EDGE_CURVE('',#24,#24,#32,.T.);
#32 = CIRCLE('',#33,10.75);
#33 = AXIS2_PLACEMENT_3D('',#34,#35,#36);
#34 = CARTESIAN_POINT('',(5.,-2.196341463415,10.78));
#35 = DIRECTION('',(1.137711779659E-033,-1.,-3.413135338977E-033));
#36 = DIRECTION('',(1.,1.137711779659E-033,1.223540291681E-033));
#37 = ORIENTED_EDGE('',*,*,#21,.F.);
#38 = ORIENTED_EDGE('',*,*,#39,.F.);
#39 = EDGE_CURVE('',#22,#22,#40,.T.);
#40 = CIRCLE('',#41,10.75);
#41 = AXIS2_PLACEMENT_3D('',#42,#43,#44);
#42 = CARTESIAN_POINT('',(5.,-2.003658536585,10.78));
#43 = DIRECTION('',(1.137711779659E-033,-1.,-3.413135338977E-033));
#44 = DIRECTION('',(1.,1.137711779659E-033,-1.223540291681E-033));
#45 = CYLINDRICAL_SURFACE('',#46,10.75);
#46 = AXIS2_PLACEMENT_3D('',#47,#48,#49);
#47 = CARTESIAN_POINT('',(5.,1.85,10.78));
#48 = DIRECTION('',(0.E+000,1.,0.E+000));
#49 = DIRECTION('',(1.,0.E+000,0.E+000));
#50 = ADVANCED_FACE('',(#51,#71),#149,.T.);
#51 = FACE_BOUND('',#52,.F.);
#52 = EDGE_LOOP('',(#53,#54,#63,#70));
#53 = ORIENTED_EDGE('',*,*,#39,.T.);
#54 = ORIENTED_EDGE('',*,*,#55,.T.);
#55 = EDGE_CURVE('',#22,#56,#58,.T.);
#56 = VERTEX_POINT('',#57);
#57 = CARTESIAN_POINT('',(11.896341463415,1.85,10.78));
#58 = CIRCLE('',#59,3.853658536585);
#59 = AXIS2_PLACEMENT_3D('',#60,#61,#62);
#60 = CARTESIAN_POINT('',(11.896341463415,-2.003658536585,10.78));
#61 = DIRECTION('',(1.223540291681E-033,-3.413135338977E-033,1.));
#62 = DIRECTION('',(1.,1.137711779659E-033,-1.223540291681E-033));
#63 = ORIENTED_EDGE('',*,*,#64,.F.);
#64 = EDGE_CURVE('',#56,#56,#65,.T.);
#65 = CIRCLE('',#66,6.896341463415);
#66 = AXIS2_PLACEMENT_3D('',#67,#68,#69);
#67 = CARTESIAN_POINT('',(5.,1.85,10.78));
#68 = DIRECTION('',(1.137711779659E-033,-1.,-3.413135338977E-033));
#69 = DIRECTION('',(1.,1.137711779659E-033,-1.223540291681E-033));
#70 = ORIENTED_EDGE('',*,*,#55,.F.);
#71 = FACE_BOUND('',#72,.F.);
#72 = EDGE_LOOP('',(#73,#102));
#73 = ORIENTED_EDGE('',*,*,#74,.T.);
#74 = EDGE_CURVE('',#75,#77,#79,.T.);
#75 = VERTEX_POINT('',#76);
#76 = CARTESIAN_POINT('',(0.45,0.E+000,1.664299094276));
#77 = VERTEX_POINT('',#78);
#78 = CARTESIAN_POINT('',(-0.273161065286,-0.357607371865,1.838298181147
));
#79 = B_SPLINE_CURVE_WITH_KNOTS('',6,(#80,#81,#82,#83,#84,#85,#86,#87,
#88,#89,#90,#91,#92,#93,#94,#95,#96,#97,#98,#99,#100,#101),
.UNSPECIFIED.,.F.,.F.,(7,5,5,5,7),(0.E+000,0.121495790503,
0.330991998269,0.664704712653,1.),.UNSPECIFIED.);
#80 = CARTESIAN_POINT('',(0.45,-5.551115123126E-017,1.664299094276));
#81 = CARTESIAN_POINT('',(0.45,-1.887399294117E-002,1.651459309444));
#82 = CARTESIAN_POINT('',(0.449050044558,-3.790791966461E-002,
1.639188114936));
#83 = CARTESIAN_POINT('',(0.447120016115,-5.705139257875E-002,
1.627534899446));
#84 = CARTESIAN_POINT('',(0.444181059639,-7.62456386037E-002,
1.616551281723));
#85 = CARTESIAN_POINT('',(0.440208868634,-9.542341951581E-002,
1.606288988554));
#86 = CARTESIAN_POINT('',(0.426527671272,-0.147418296091,1.580431880957)
);
#87 = CARTESIAN_POINT('',(0.414745556188,-0.180060228714,1.566355105716)
);
#88 = CARTESIAN_POINT('',(0.399758079955,-0.212032812103,1.55483029494)
);
#89 = CARTESIAN_POINT('',(0.381559116209,-0.242868945933,1.546091794425)
);
#90 = CARTESIAN_POINT('',(0.360274665082,-0.272055370737,1.540301695855)
);
#91 = CARTESIAN_POINT('',(0.297846798466,-0.342222562124,1.533041439407)
);
#92 = CARTESIAN_POINT('',(0.252379171188,-0.379971873031,1.536164317759)
);
#93 = CARTESIAN_POINT('',(0.201005555192,-0.410370420784,1.547070938149)
);
#94 = CARTESIAN_POINT('',(0.145719029134,-0.432105083341,1.565075493589)
);
#95 = CARTESIAN_POINT('',(8.876065276426E-002,-0.444790161057,
1.589061838264));
#96 = CARTESIAN_POINT('',(-2.464967957485E-002,-0.452923521282,
1.646473439931));
#97 = CARTESIAN_POINT('',(-8.10629349716E-002,-0.448287193287,
1.679925510576));
#98 = CARTESIAN_POINT('',(-0.135207010528,-0.43540730489,1.716814703282)
);
#99 = CARTESIAN_POINT('',(-0.185742171534,-0.415337483698,1.756000661384
));
#100 = CARTESIAN_POINT('',(-0.231901907819,-0.389123487843,
1.796682149222));
#101 = CARTESIAN_POINT('',(-0.273161065286,-0.357607371865,
1.838298181147));
#102 = ORIENTED_EDGE('',*,*,#103,.T.);
#103 = EDGE_CURVE('',#77,#75,#104,.T.);
#104 = B_SPLINE_CURVE_WITH_KNOTS('',7,(#105,#106,#107,#108,#109,#110,
#111,#112,#113,#114,#115,#116,#117,#118,#119,#120,#121,#122,#123,
#124,#125,#126,#127,#128,#129,#130,#131,#132,#133,#134,#135,#136,
#137,#138,#139,#140,#141,#142,#143,#144,#145,#146,#147,#148),
.UNSPECIFIED.,.F.,.F.,(8,6,6,6,6,6,6,8),(0.E+000,9.51087290605E-002,
0.339378473068,0.396640854,0.486908584501,0.624214069784,
0.808489874305,1.),.UNSPECIFIED.);
#105 = CARTESIAN_POINT('',(-0.273161065286,-0.357607371865,
1.838298181147));
#106 = CARTESIAN_POINT('',(-0.292615871995,-0.342746672271,
1.857921263798));
#107 = CARTESIAN_POINT('',(-0.311005194452,-0.326744576843,
1.877740163439));
#108 = CARTESIAN_POINT('',(-0.328274489687,-0.309687014483,
1.897695536797));
#109 = CARTESIAN_POINT('',(-0.344375409142,-0.291657934828,
1.917731932088));
#110 = CARTESIAN_POINT('',(-0.359264611797,-0.272739351274,
1.937796557209));
#111 = CARTESIAN_POINT('',(-0.372902577282,-0.253011384014,
1.957838047922));
#112 = CARTESIAN_POINT('',(-0.416970776542,-0.180006816256,
2.029087384141));
#113 = CARTESIAN_POINT('',(-0.440147343162,-0.12271291245,2.079806828857
));
#114 = CARTESIAN_POINT('',(-0.454262716759,-6.192006629778E-002,
2.129199867498));
#115 = CARTESIAN_POINT('',(-0.458725754444,1.127195235328E-003,
2.176367730656));
#116 = CARTESIAN_POINT('',(-0.452953598739,6.497130220536E-002,
2.220130651586));
#117 = CARTESIAN_POINT('',(-0.436447537463,0.127913611614,2.258890009437
));
#118 = CARTESIAN_POINT('',(-0.402469941614,0.201883394872,2.297878739804
));
#119 = CARTESIAN_POINT('',(-0.395414923326,0.215758071955,2.304885127597
));
#120 = CARTESIAN_POINT('',(-0.387756008592,0.229430557154,2.311465136397
));
#121 = CARTESIAN_POINT('',(-0.379493859264,0.242868632589,2.317588049423
));
#122 = CARTESIAN_POINT('',(-0.370631937636,0.256037945219,2.323221842281
));
#123 = CARTESIAN_POINT('',(-0.361177260242,0.268902433329,2.328333970209
));
#124 = CARTESIAN_POINT('',(-0.335320350453,0.301164787596,2.340077623651
));
#125 = CARTESIAN_POINT('',(-0.318052544205,0.320057233928,2.345887548747
));
#126 = CARTESIAN_POINT('',(-0.299385507895,0.337950677357,2.350193535819
));
#127 = CARTESIAN_POINT('',(-0.27939574524,0.354687547693,2.352871605619)
);
#128 = CARTESIAN_POINT('',(-0.258195683839,0.370112967416,2.353815841985
));
#129 = CARTESIAN_POINT('',(-0.235936812148,0.384086990238,2.352954953159
));
#130 = CARTESIAN_POINT('',(-0.177628870198,0.415381904556,2.346190344368
));
#131 = CARTESIAN_POINT('',(-0.14039700893,0.430674530925,2.337888212767)
);
#132 = CARTESIAN_POINT('',(-0.10183413602,0.441942905418,2.325291150013)
);
#133 = CARTESIAN_POINT('',(-6.272090381167E-002,0.449045957187,
2.308643361328));
#134 = CARTESIAN_POINT('',(-2.378398242104E-002,0.452076481199,
2.28843382084));
#135 = CARTESIAN_POINT('',(1.436137325625E-002,0.451297659001,
2.265302693466));
#136 = CARTESIAN_POINT('',(0.100669929293,0.441411029618,2.20587254417)
);
#137 = CARTESIAN_POINT('',(0.147847753713,0.429539898628,2.167741815894)
);
#138 = CARTESIAN_POINT('',(0.192097450444,0.412267009753,2.126774268417)
);
#139 = CARTESIAN_POINT('',(0.233052764758,0.390317382438,2.084045958097)
);
#140 = CARTESIAN_POINT('',(0.270480763452,0.364270693655,2.040396539597)
);
#141 = CARTESIAN_POINT('',(0.304219441791,0.334567558527,1.996466882935)
);
#142 = CARTESIAN_POINT('',(0.365090144716,0.267119849159,1.907345411366)
);
#143 = CARTESIAN_POINT('',(0.391856483013,0.229166165838,1.862251862054)
);
#144 = CARTESIAN_POINT('',(0.414127764675,0.188019090071,1.818110304323)
);
#145 = CARTESIAN_POINT('',(0.431553424205,0.144034733637,1.775542946363)
);
#146 = CARTESIAN_POINT('',(0.443682004321,9.763053899189E-002,
1.735221267469));
#147 = CARTESIAN_POINT('',(0.45,4.936433254856E-002,1.697881146057));
#148 = CARTESIAN_POINT('',(0.45,-5.551115123126E-017,1.664299094276));
#149 = TOROIDAL_SURFACE('',#150,6.896341463415,3.853658536585);
#150 = AXIS2_PLACEMENT_3D('',#151,#152,#153);
#151 = CARTESIAN_POINT('',(5.,-2.003658536585,10.78));
#152 = DIRECTION('',(-1.137711779659E-033,1.,3.413135338977E-033));
#153 = DIRECTION('',(1.,1.137711779659E-033,-1.223540291681E-033));
#154 = ADVANCED_FACE('',(#155,#175),#262,.T.);
#155 = FACE_BOUND('',#156,.T.);
#156 = EDGE_LOOP('',(#157,#158,#167,#174));
#157 = ORIENTED_EDGE('',*,*,#31,.T.);
#158 = ORIENTED_EDGE('',*,*,#159,.T.);
#159 = EDGE_CURVE('',#24,#160,#162,.T.);
#160 = VERTEX_POINT('',#161);
#161 = CARTESIAN_POINT('',(11.896341463415,-6.05,10.78));
#162 = CIRCLE('',#163,3.853658536585);
#163 = AXIS2_PLACEMENT_3D('',#164,#165,#166);
#164 = CARTESIAN_POINT('',(11.896341463415,-2.196341463415,10.78));
#165 = DIRECTION('',(1.223540291681E-033,3.413135338977E-033,-1.));
#166 = DIRECTION('',(1.,1.137711779659E-033,1.223540291681E-033));
#167 = ORIENTED_EDGE('',*,*,#168,.F.);
#168 = EDGE_CURVE('',#160,#160,#169,.T.);
#169 = CIRCLE('',#170,6.896341463415);
#170 = AXIS2_PLACEMENT_3D('',#171,#172,#173);
#171 = CARTESIAN_POINT('',(5.,-6.05,10.78));
#172 = DIRECTION('',(1.137711779659E-033,-1.,-3.413135338977E-033));
#173 = DIRECTION('',(1.,1.137711779659E-033,1.223540291681E-033));
#174 = ORIENTED_EDGE('',*,*,#159,.F.);
#175 = FACE_BOUND('',#176,.T.);
#176 = EDGE_LOOP('',(#177,#194));
#177 = ORIENTED_EDGE('',*,*,#178,.T.);
#178 = EDGE_CURVE('',#179,#181,#183,.T.);
#179 = VERTEX_POINT('',#180);
#180 = CARTESIAN_POINT('',(10.45,-4.2,2.172096480407));
#181 = VERTEX_POINT('',#182);
#182 = CARTESIAN_POINT('',(10.220392479043,-3.807664486464,
1.788656600753));
#183 = B_SPLINE_CURVE_WITH_KNOTS('',5,(#184,#185,#186,#187,#188,#189,
#190,#191,#192,#193),.UNSPECIFIED.,.F.,.F.,(6,4,6),(0.E+000,
0.527005932583,1.),.UNSPECIFIED.);
#184 = CARTESIAN_POINT('',(10.45,-4.2,2.172096480407));
#185 = CARTESIAN_POINT('',(10.45,-4.149376404588,2.135626156479));
#186 = CARTESIAN_POINT('',(10.442881377403,-4.099400136328,
2.096749115698));
#187 = CARTESIAN_POINT('',(10.429007291811,-4.051084733649,
2.056351454471));
#188 = CARTESIAN_POINT('',(10.408751391433,-4.005319035678,
2.015057490461));
#189 = CARTESIAN_POINT('',(10.359000060895,-3.925017531759,1.93610309319
));
#190 = CARTESIAN_POINT('',(10.330669968454,-3.889820696906,
1.898512691159));
#191 = CARTESIAN_POINT('',(10.297848751397,-3.858054622272,
1.861096730168));
#192 = CARTESIAN_POINT('',(10.260905285084,-3.830422349182,
1.824291404293));
#193 = CARTESIAN_POINT('',(10.220392479043,-3.807664486464,
1.788656600753));
#194 = ORIENTED_EDGE('',*,*,#195,.T.);
#195 = EDGE_CURVE('',#181,#179,#196,.T.);
#196 = B_SPLINE_CURVE_WITH_KNOTS('',8,(#197,#198,#199,#200,#201,#202,
#203,#204,#205,#206,#207,#208,#209,#210,#211,#212,#213,#214,#215,
#216,#217,#218,#219,#220,#221,#222,#223,#224,#225,#226,#227,#228,
#229,#230,#231,#232,#233,#234,#235,#236,#237,#238,#239,#240,#241,
#242,#243,#244,#245,#246,#247,#248,#249,#250,#251,#252,#253,#254,
#255,#256,#257,#258,#259,#260,#261),.UNSPECIFIED.,.F.,.F.,(9,7,7,7,7
,7,7,7,7,9),(0.E+000,0.164099596441,0.249286183815,0.33965661023,
0.38774145097,0.541383421244,0.679823019234,0.861984112066,
0.901523734564,1.),.UNSPECIFIED.);
#197 = CARTESIAN_POINT('',(10.220392479043,-3.807664486464,
1.788656600753));
#198 = CARTESIAN_POINT('',(10.179664474085,-3.784785736849,
1.752832509631));
#199 = CARTESIAN_POINT('',(10.135613922834,-3.766397109254,
1.718068675156));
#200 = CARTESIAN_POINT('',(10.088650640216,-3.753061983469,
1.684788807436));
#201 = CARTESIAN_POINT('',(10.039357279322,-3.745400154168,
1.653549111613));
#202 = CARTESIAN_POINT('',(9.988544328579,-3.744000589781,1.625020430497
));
#203 = CARTESIAN_POINT('',(9.937284055674,-3.749295493848,1.599975012253
));
#204 = CARTESIAN_POINT('',(9.886869991632,-3.761399993808,1.579207674618
));
#205 = CARTESIAN_POINT('',(9.813616066545,-3.789536723211,1.555074194783
));
#206 = CARTESIAN_POINT('',(9.789155230461,-3.800888193687,1.54813621617)
);
#207 = CARTESIAN_POINT('',(9.76544385175,-3.813931243095,1.542590802864)
);
#208 = CARTESIAN_POINT('',(9.742652611089,-3.828592737908,1.538507322783
));
#209 = CARTESIAN_POINT('',(9.720940693109,-3.844773621117,1.535938093843
));
#210 = CARTESIAN_POINT('',(9.700451421209,-3.86235117176,1.534915567597)
);
#211 = CARTESIAN_POINT('',(9.681307892368,-3.881181264446,1.535449512877
));
#212 = CARTESIAN_POINT('',(9.644832281462,-3.92223214166,1.539725136393)
);
#213 = CARTESIAN_POINT('',(9.627676366075,-3.944595320212,1.543660601562
));
#214 = CARTESIAN_POINT('',(9.612259043418,-3.967998439357,1.549313640433
));
#215 = CARTESIAN_POINT('',(9.598656086569,-3.99224051964,1.556636979922)
);
#216 = CARTESIAN_POINT('',(9.58690572507,-4.017122275358,1.565559454851)
);
#217 = CARTESIAN_POINT('',(9.577014334816,-4.042454114556,1.575992178848
));
#218 = CARTESIAN_POINT('',(9.568962956839,-4.068061191009,1.587834459653
));
#219 = CARTESIAN_POINT('',(9.559390005554,-4.107473057785,1.607973729182
));
#220 = CARTESIAN_POINT('',(9.556575531398,-4.121195078659,1.615337469217
));
#221 = CARTESIAN_POINT('',(9.554265579608,-4.134928579321,1.623055091443
));
#222 = CARTESIAN_POINT('',(9.552453206258,-4.148652101051,1.631110714721
));
#223 = CARTESIAN_POINT('',(9.551130441215,-4.162345704017,1.639488339283
));
#224 = CARTESIAN_POINT('',(9.550288562967,-4.175990953398,1.648172021726
));
#225 = CARTESIAN_POINT('',(9.54991837345,-4.189570905505,1.657146050007)
);
#226 = CARTESIAN_POINT('',(9.550304751417,-4.246203062041,1.695947989491
));
#227 = CARTESIAN_POINT('',(9.55531871443,-4.288485786134,1.728291286178)
);
#228 = CARTESIAN_POINT('',(9.564734614096,-4.329447097468,1.762941406073
));
#229 = CARTESIAN_POINT('',(9.57823350923,-4.368717233079,1.799435507555)
);
#230 = CARTESIAN_POINT('',(9.59551985063,-4.40600322704,1.837339765604)
);
#231 = CARTESIAN_POINT('',(9.6163389943,-4.441061011828,1.876248066651)
);
#232 = CARTESIAN_POINT('',(9.640487642536,-4.473664229783,1.915771142485
));
#233 = CARTESIAN_POINT('',(9.69244261129,-4.530516225285,1.991328505679)
);
#234 = CARTESIAN_POINT('',(9.719622159875,-4.555241400006,2.027279866577
));
#235 = CARTESIAN_POINT('',(9.749252385581,-4.577590100328,2.063101265387
));
#236 = CARTESIAN_POINT('',(9.781239732628,-4.597353800053,2.098476263563
));
#237 = CARTESIAN_POINT('',(9.815480235931,-4.614269330179,2.133020482982
));
#238 = CARTESIAN_POINT('',(9.851835933538,-4.62802025883,2.166270791064)
);
#239 = CARTESIAN_POINT('',(9.890108018082,-4.638240946233,2.197684132583
));
#240 = CARTESIAN_POINT('',(9.982506102942,-4.652789665552,2.264754518876
));
#241 = CARTESIAN_POINT('',(10.038440710389,-4.654335386584,
2.299068636341));
#242 = CARTESIAN_POINT('',(10.096100072559,-4.647766752926,2.32717049964
));
#243 = CARTESIAN_POINT('',(10.153409856212,-4.632380781436,
2.347064937899));
#244 = CARTESIAN_POINT('',(10.208169913908,-4.60825675166,2.357611945707
));
#245 = CARTESIAN_POINT('',(10.258297061221,-4.576284591331,
2.358859275874));
#246 = CARTESIAN_POINT('',(10.302220970876,-4.538103395596,
2.351754623291));
#247 = CARTESIAN_POINT('',(10.347131413505,-4.486615176024,
2.334858297359));
#248 = CARTESIAN_POINT('',(10.354822688849,-4.477223734267,
2.331520808322));
#249 = CARTESIAN_POINT('',(10.362189710239,-4.467638957539,2.32787197976
));
#250 = CARTESIAN_POINT('',(10.369227941984,-4.457875924177,
2.323924823392));
#251 = CARTESIAN_POINT('',(10.375934060121,-4.44794933836,2.319692435877
));
#252 = CARTESIAN_POINT('',(10.382305806163,-4.437873423024,
2.315187815183));
#253 = CARTESIAN_POINT('',(10.388341840841,-4.427661812787,
2.310423676944));
#254 = CARTESIAN_POINT('',(10.408237251471,-4.391588967373,
2.292931004489));
#255 = CARTESIAN_POINT('',(10.420343558142,-4.36509526226,2.278918955441
));
#256 = CARTESIAN_POINT('',(10.430357547227,-4.338040029909,
2.263563829615));
#257 = CARTESIAN_POINT('',(10.43829608813,-4.310601340449,2.247039402653
));
#258 = CARTESIAN_POINT('',(10.444189686506,-4.282940621618,
2.229502135983));
#259 = CARTESIAN_POINT('',(10.448076989495,-4.255202729148,
2.211089555186));
#260 = CARTESIAN_POINT('',(10.45,-4.227517101649,2.191920390632));
#261 = CARTESIAN_POINT('',(10.45,-4.2,2.172096480407));
#262 = TOROIDAL_SURFACE('',#263,6.896341463415,3.853658536585);
#263 = AXIS2_PLACEMENT_3D('',#264,#265,#266);
#264 = CARTESIAN_POINT('',(5.,-2.196341463415,10.78));
#265 = DIRECTION('',(1.137711779659E-033,-1.,-3.413135338977E-033));
#266 = DIRECTION('',(1.,1.137711779659E-033,1.223540291681E-033));
#267 = ADVANCED_FACE('',(#268),#271,.F.);
#268 = FACE_BOUND('',#269,.F.);
#269 = EDGE_LOOP('',(#270));
#270 = ORIENTED_EDGE('',*,*,#64,.T.);
#271 = PLANE('',#272);
#272 = AXIS2_PLACEMENT_3D('',#273,#274,#275);
#273 = CARTESIAN_POINT('',(5.,1.85,10.78));
#274 = DIRECTION('',(1.137711779659E-033,-1.,-3.413135338977E-033));
#275 = DIRECTION('',(0.E+000,3.413135338977E-033,-1.));
#276 = ADVANCED_FACE('',(#277),#297,.T.);
#277 = FACE_BOUND('',#278,.T.);
#278 = EDGE_LOOP('',(#279,#280,#288,#295,#296));
#279 = ORIENTED_EDGE('',*,*,#103,.T.);
#280 = ORIENTED_EDGE('',*,*,#281,.T.);
#281 = EDGE_CURVE('',#75,#282,#284,.T.);
#282 = VERTEX_POINT('',#283);
#283 = CARTESIAN_POINT('',(0.45,0.E+000,-2.82));
#284 = LINE('',#285,#286);
#285 = CARTESIAN_POINT('',(0.45,0.E+000,10.78));
#286 = VECTOR('',#287,1.);
#287 = DIRECTION('',(-0.E+000,-0.E+000,-1.));
#288 = ORIENTED_EDGE('',*,*,#289,.T.);
#289 = EDGE_CURVE('',#282,#282,#290,.T.);
#290 = CIRCLE('',#291,0.45);
#291 = AXIS2_PLACEMENT_3D('',#292,#293,#294);
#292 = CARTESIAN_POINT('',(0.E+000,0.E+000,-2.82));
#293 = DIRECTION('',(0.E+000,0.E+000,1.));
#294 = DIRECTION('',(1.,0.E+000,0.E+000));
#295 = ORIENTED_EDGE('',*,*,#281,.F.);
#296 = ORIENTED_EDGE('',*,*,#74,.T.);
#297 = CYLINDRICAL_SURFACE('',#298,0.45);
#298 = AXIS2_PLACEMENT_3D('',#299,#300,#301);
#299 = CARTESIAN_POINT('',(0.E+000,0.E+000,10.78));
#300 = DIRECTION('',(0.E+000,0.E+000,1.));
#301 = DIRECTION('',(1.,0.E+000,0.E+000));
#302 = ADVANCED_FACE('',(#303),#306,.T.);
#303 = FACE_BOUND('',#304,.T.);
#304 = EDGE_LOOP('',(#305));
#305 = ORIENTED_EDGE('',*,*,#168,.T.);
#306 = PLANE('',#307);
#307 = AXIS2_PLACEMENT_3D('',#308,#309,#310);
#308 = CARTESIAN_POINT('',(5.,-6.05,10.78));
#309 = DIRECTION('',(1.137711779659E-033,-1.,-3.413135338977E-033));
#310 = DIRECTION('',(0.E+000,3.413135338977E-033,-1.));
#311 = ADVANCED_FACE('',(#312),#332,.T.);
#312 = FACE_BOUND('',#313,.T.);
#313 = EDGE_LOOP('',(#314,#315,#323,#330,#331));
#314 = ORIENTED_EDGE('',*,*,#178,.F.);
#315 = ORIENTED_EDGE('',*,*,#316,.T.);
#316 = EDGE_CURVE('',#179,#317,#319,.T.);
#317 = VERTEX_POINT('',#318);
#318 = CARTESIAN_POINT('',(10.45,-4.2,-2.82));
#319 = LINE('',#320,#321);
#320 = CARTESIAN_POINT('',(10.45,-4.2,10.78));
#321 = VECTOR('',#322,1.);
#322 = DIRECTION('',(-0.E+000,-0.E+000,-1.));
#323 = ORIENTED_EDGE('',*,*,#324,.T.);
#324 = EDGE_CURVE('',#317,#317,#325,.T.);
#325 = CIRCLE('',#326,0.45);
#326 = AXIS2_PLACEMENT_3D('',#327,#328,#329);
#327 = CARTESIAN_POINT('',(10.,-4.2,-2.82));
#328 = DIRECTION('',(0.E+000,0.E+000,1.));
#329 = DIRECTION('',(1.,0.E+000,0.E+000));
#330 = ORIENTED_EDGE('',*,*,#316,.F.);
#331 = ORIENTED_EDGE('',*,*,#195,.F.);
#332 = CYLINDRICAL_SURFACE('',#333,0.45);
#333 = AXIS2_PLACEMENT_3D('',#334,#335,#336);
#334 = CARTESIAN_POINT('',(10.,-4.2,10.78));
#335 = DIRECTION('',(0.E+000,0.E+000,1.));
#336 = DIRECTION('',(1.,0.E+000,0.E+000));
#337 = ADVANCED_FACE('',(#338),#358,.T.);
#338 = FACE_BOUND('',#339,.F.);
#339 = EDGE_LOOP('',(#340,#349,#350,#351));
#340 = ORIENTED_EDGE('',*,*,#341,.F.);
#341 = EDGE_CURVE('',#282,#342,#344,.T.);
#342 = VERTEX_POINT('',#343);
#343 = CARTESIAN_POINT('',(0.27,0.E+000,-3.));
#344 = CIRCLE('',#345,0.18);
#345 = AXIS2_PLACEMENT_3D('',#346,#347,#348);
#346 = CARTESIAN_POINT('',(0.27,0.E+000,-2.82));
#347 = DIRECTION('',(-0.E+000,1.,0.E+000));
#348 = DIRECTION('',(1.,0.E+000,0.E+000));
#349 = ORIENTED_EDGE('',*,*,#289,.T.);
#350 = ORIENTED_EDGE('',*,*,#341,.T.);
#351 = ORIENTED_EDGE('',*,*,#352,.F.);
#352 = EDGE_CURVE('',#342,#342,#353,.T.);
#353 = CIRCLE('',#354,0.27);
#354 = AXIS2_PLACEMENT_3D('',#355,#356,#357);
#355 = CARTESIAN_POINT('',(0.E+000,0.E+000,-3.));
#356 = DIRECTION('',(0.E+000,0.E+000,1.));
#357 = DIRECTION('',(1.,0.E+000,0.E+000));
#358 = TOROIDAL_SURFACE('',#359,0.27,0.18);
#359 = AXIS2_PLACEMENT_3D('',#360,#361,#362);
#360 = CARTESIAN_POINT('',(0.E+000,0.E+000,-2.82));
#361 = DIRECTION('',(-0.E+000,-0.E+000,-1.));
#362 = DIRECTION('',(1.,0.E+000,0.E+000));
#363 = ADVANCED_FACE('',(#364),#384,.T.);
#364 = FACE_BOUND('',#365,.F.);
#365 = EDGE_LOOP('',(#366,#375,#376,#377));
#366 = ORIENTED_EDGE('',*,*,#367,.F.);
#367 = EDGE_CURVE('',#317,#368,#370,.T.);
#368 = VERTEX_POINT('',#369);
#369 = CARTESIAN_POINT('',(10.27,-4.2,-3.));
#370 = CIRCLE('',#371,0.18);
#371 = AXIS2_PLACEMENT_3D('',#372,#373,#374);
#372 = CARTESIAN_POINT('',(10.27,-4.2,-2.82));
#373 = DIRECTION('',(-0.E+000,1.,0.E+000));
#374 = DIRECTION('',(1.,0.E+000,0.E+000));
#375 = ORIENTED_EDGE('',*,*,#324,.T.);
#376 = ORIENTED_EDGE('',*,*,#367,.T.);
#377 = ORIENTED_EDGE('',*,*,#378,.F.);
#378 = EDGE_CURVE('',#368,#368,#379,.T.);
#379 = CIRCLE('',#380,0.27);
#380 = AXIS2_PLACEMENT_3D('',#381,#382,#383);
#381 = CARTESIAN_POINT('',(10.,-4.2,-3.));
#382 = DIRECTION('',(0.E+000,0.E+000,1.));
#383 = DIRECTION('',(1.,0.E+000,0.E+000));
#384 = TOROIDAL_SURFACE('',#385,0.27,0.18);
#385 = AXIS2_PLACEMENT_3D('',#386,#387,#388);
#386 = CARTESIAN_POINT('',(10.,-4.2,-2.82));
#387 = DIRECTION('',(-0.E+000,-0.E+000,-1.));
#388 = DIRECTION('',(1.,0.E+000,0.E+000));
#389 = ADVANCED_FACE('',(#390),#393,.F.);
#390 = FACE_BOUND('',#391,.F.);
#391 = EDGE_LOOP('',(#392));
#392 = ORIENTED_EDGE('',*,*,#352,.T.);
#393 = PLANE('',#394);
#394 = AXIS2_PLACEMENT_3D('',#395,#396,#397);
#395 = CARTESIAN_POINT('',(-1.18701400394E-017,2.911085817041E-017,-3.)
);
#396 = DIRECTION('',(0.E+000,0.E+000,1.));
#397 = DIRECTION('',(1.,0.E+000,0.E+000));
#398 = ADVANCED_FACE('',(#399),#402,.F.);
#399 = FACE_BOUND('',#400,.F.);
#400 = EDGE_LOOP('',(#401));
#401 = ORIENTED_EDGE('',*,*,#378,.T.);
#402 = PLANE('',#403);
#403 = AXIS2_PLACEMENT_3D('',#404,#405,#406);
#404 = CARTESIAN_POINT('',(10.,-4.2,-3.));
#405 = DIRECTION('',(0.E+000,0.E+000,1.));
#406 = DIRECTION('',(1.,0.E+000,0.E+000));
#407 = ( GEOMETRIC_REPRESENTATION_CONTEXT(3)
GLOBAL_UNCERTAINTY_ASSIGNED_CONTEXT((#411)) GLOBAL_UNIT_ASSIGNED_CONTEXT
((#408,#409,#410)) REPRESENTATION_CONTEXT('Context #1',
'3D Context with UNIT and UNCERTAINTY') );
#408 = ( LENGTH_UNIT() NAMED_UNIT(*) SI_UNIT(.MILLI.,.METRE.) );
#409 = ( NAMED_UNIT(*) PLANE_ANGLE_UNIT() SI_UNIT($,.RADIAN.) );
#410 = ( NAMED_UNIT(*) SI_UNIT($,.STERADIAN.) SOLID_ANGLE_UNIT() );
#411 = UNCERTAINTY_MEASURE_WITH_UNIT(LENGTH_MEASURE(1.E-007),#408,
'distance_accuracy_value','confusion accuracy');
#412 = PRODUCT_RELATED_PRODUCT_CATEGORY('part',$,(#7));
#413 = MECHANICAL_DESIGN_GEOMETRIC_PRESENTATION_REPRESENTATION('',(#414,
#422,#429,#436,#443,#451,#458,#465,#472,#479,#486),#407);
#414 = STYLED_ITEM('color',(#415),#17);
#415 = PRESENTATION_STYLE_ASSIGNMENT((#416));
#416 = SURFACE_STYLE_USAGE(.BOTH.,#417);
#417 = SURFACE_SIDE_STYLE('',(#418));
#418 = SURFACE_STYLE_FILL_AREA(#419);
#419 = FILL_AREA_STYLE('',(#420));
#420 = FILL_AREA_STYLE_COLOUR('',#421);
#421 = COLOUR_RGB('',0.136999994516,0.402000010014,0.726999998093);
#422 = STYLED_ITEM('color',(#423),#50);
#423 = PRESENTATION_STYLE_ASSIGNMENT((#424));
#424 = SURFACE_STYLE_USAGE(.BOTH.,#425);
#425 = SURFACE_SIDE_STYLE('',(#426));
#426 = SURFACE_STYLE_FILL_AREA(#427);
#427 = FILL_AREA_STYLE('',(#428));
#428 = FILL_AREA_STYLE_COLOUR('',#421);
#429 = STYLED_ITEM('color',(#430),#154);
#430 = PRESENTATION_STYLE_ASSIGNMENT((#431));
#431 = SURFACE_STYLE_USAGE(.BOTH.,#432);
#432 = SURFACE_SIDE_STYLE('',(#433));
#433 = SURFACE_STYLE_FILL_AREA(#434);
#434 = FILL_AREA_STYLE('',(#435));
#435 = FILL_AREA_STYLE_COLOUR('',#421);
#436 = STYLED_ITEM('color',(#437),#267);
#437 = PRESENTATION_STYLE_ASSIGNMENT((#438));
#438 = SURFACE_STYLE_USAGE(.BOTH.,#439);
#439 = SURFACE_SIDE_STYLE('',(#440));
#440 = SURFACE_STYLE_FILL_AREA(#441);
#441 = FILL_AREA_STYLE('',(#442));
#442 = FILL_AREA_STYLE_COLOUR('',#421);
#443 = STYLED_ITEM('color',(#444),#276);
#444 = PRESENTATION_STYLE_ASSIGNMENT((#445));
#445 = SURFACE_STYLE_USAGE(.BOTH.,#446);
#446 = SURFACE_SIDE_STYLE('',(#447));
#447 = SURFACE_STYLE_FILL_AREA(#448);
#448 = FILL_AREA_STYLE('',(#449));
#449 = FILL_AREA_STYLE_COLOUR('',#450);
#450 = COLOUR_RGB('',0.824000000954,0.819999992847,0.78100001812);
#451 = STYLED_ITEM('color',(#452),#302);
#452 = PRESENTATION_STYLE_ASSIGNMENT((#453));
#453 = SURFACE_STYLE_USAGE(.BOTH.,#454);
#454 = SURFACE_SIDE_STYLE('',(#455));
#455 = SURFACE_STYLE_FILL_AREA(#456);
#456 = FILL_AREA_STYLE('',(#457));
#457 = FILL_AREA_STYLE_COLOUR('',#421);
#458 = STYLED_ITEM('color',(#459),#311);
#459 = PRESENTATION_STYLE_ASSIGNMENT((#460));
#460 = SURFACE_STYLE_USAGE(.BOTH.,#461);
#461 = SURFACE_SIDE_STYLE('',(#462));
#462 = SURFACE_STYLE_FILL_AREA(#463);
#463 = FILL_AREA_STYLE('',(#464));
#464 = FILL_AREA_STYLE_COLOUR('',#450);
#465 = STYLED_ITEM('color',(#466),#337);
#466 = PRESENTATION_STYLE_ASSIGNMENT((#467));
#467 = SURFACE_STYLE_USAGE(.BOTH.,#468);
#468 = SURFACE_SIDE_STYLE('',(#469));
#469 = SURFACE_STYLE_FILL_AREA(#470);
#470 = FILL_AREA_STYLE('',(#471));
#471 = FILL_AREA_STYLE_COLOUR('',#450);
#472 = STYLED_ITEM('color',(#473),#363);
#473 = PRESENTATION_STYLE_ASSIGNMENT((#474));
#474 = SURFACE_STYLE_USAGE(.BOTH.,#475);
#475 = SURFACE_SIDE_STYLE('',(#476));
#476 = SURFACE_STYLE_FILL_AREA(#477);
#477 = FILL_AREA_STYLE('',(#478));
#478 = FILL_AREA_STYLE_COLOUR('',#450);
#479 = STYLED_ITEM('color',(#480),#389);
#480 = PRESENTATION_STYLE_ASSIGNMENT((#481));
#481 = SURFACE_STYLE_USAGE(.BOTH.,#482);
#482 = SURFACE_SIDE_STYLE('',(#483));
#483 = SURFACE_STYLE_FILL_AREA(#484);
#484 = FILL_AREA_STYLE('',(#485));
#485 = FILL_AREA_STYLE_COLOUR('',#450);
#486 = STYLED_ITEM('color',(#487),#398);
#487 = PRESENTATION_STYLE_ASSIGNMENT((#488));
#488 = SURFACE_STYLE_USAGE(.BOTH.,#489);
#489 = SURFACE_SIDE_STYLE('',(#490));
#490 = SURFACE_STYLE_FILL_AREA(#491);
#491 = FILL_AREA_STYLE('',(#492));
#492 = FILL_AREA_STYLE_COLOUR('',#450);
ENDSEC;
END-ISO-10303-21;
