ISO-10303-21;
HEADER;
/* RV_Disc_D9mm_W3.6mm_P5mm.step 3D STEP model for use in ECAD systems
 * Copyright (C) 2018, kicad StepUp
 * 
 * This work is licensed under the [Creative Commons CC-BY-SA 4.0 License](https://creativecommons.org/licenses/by-sa/4.0/legalcode), 
 * with the following exception:
 * To the extent that the creation of electronic designs that use 'Licensed Material' can be considered to be 'Adapted Material', 
 * then the copyright holder waives article 3 of the license with respect to these designs and any generated files which use data provided 
 * as part of the 'Licensed Material'.
 * You are free to use the library data in your own projects without the obligation to share your project files under this or any other license agreement.
 * However, if you wish to redistribute these libraries, or parts thereof (including in modified form) as a collection then the exception above does not apply. 
 * Please refer to https://github.com/KiCad/kicad-packages3D/blob/master/LICENSE.md for further clarification of the exception.
 * Disclaimer of Warranties and Limitation of Liability.
 * These libraries are provided in the hope that they will be useful, but are provided without warranty of any kind, express or implied.
 * *USE 3D CAD DATA AT YOUR OWN RISK*
 * *DO NOT RELY UPON ANY INFORMATION FOUND HERE WITHOUT INDEPENDENT VERIFICATION.*
 * 
 */

FILE_DESCRIPTION(
/* description */ ('model of RV_Disc_D9mm_W3.6mm_P5mm'),
/* implementation_level */ '2;1');

FILE_NAME(
/* name */ 'RV_Disc_D9mm_W3.6mm_P5mm.step',
/* time_stamp */ '2018-11-11T21:10:19',
/* author */ ('kicad StepUp','ksu'),
/* organization */ ('FreeCAD'),
/* preprocessor_version */ 'OCC',
/* originating_system */ 'kicad StepUp',
/* authorisation */ '');

FILE_SCHEMA(('AUTOMOTIVE_DESIGN { 1 0 10303 214 1 1 1 1 }'));
ENDSEC;

DATA;
#1 = APPLICATION_PROTOCOL_DEFINITION('international standard',
'automotive_design',2000,#2);
#2 = APPLICATION_CONTEXT(
'core data for automotive mechanical design processes');
#3 = SHAPE_DEFINITION_REPRESENTATION(#4,#10);
#4 = PRODUCT_DEFINITION_SHAPE('','',#5);
#5 = PRODUCT_DEFINITION('design','',#6,#9);
#6 = PRODUCT_DEFINITION_FORMATION('','',#7);
#7 = PRODUCT('RV_Disc_D9mm_W36mm_P5mm','RV_Disc_D9mm_W36mm_P5mm','',(#8)
);
#8 = PRODUCT_CONTEXT('',#2,'mechanical');
#9 = PRODUCT_DEFINITION_CONTEXT('part definition',#2,'design');
#10 = ADVANCED_BREP_SHAPE_REPRESENTATION('',(#11,#15),#381);
#11 = AXIS2_PLACEMENT_3D('',#12,#13,#14);
#12 = CARTESIAN_POINT('',(0.E+000,0.E+000,0.E+000));
#13 = DIRECTION('',(0.E+000,0.E+000,1.));
#14 = DIRECTION('',(1.,0.E+000,-0.E+000));
#15 = MANIFOLD_SOLID_BREP('',#16);
#16 = CLOSED_SHELL('',(#17,#50,#140,#241,#250,#276,#285,#311,#337,#363,
#372));
#17 = ADVANCED_FACE('',(#18),#45,.T.);
#18 = FACE_BOUND('',#19,.F.);
#19 = EDGE_LOOP('',(#20,#30,#37,#38));
#20 = ORIENTED_EDGE('',*,*,#21,.T.);
#21 = EDGE_CURVE('',#22,#24,#26,.T.);
#22 = VERTEX_POINT('',#23);
#23 = CARTESIAN_POINT('',(7.,-0.656097560976,4.53));
#24 = VERTEX_POINT('',#25);
#25 = CARTESIAN_POINT('',(7.,-0.743902439024,4.53));
#26 = LINE('',#27,#28);
#27 = CARTESIAN_POINT('',(7.,1.1,4.53));
#28 = VECTOR('',#29,1.);
#29 = DIRECTION('',(0.E+000,-1.,0.E+000));
#30 = ORIENTED_EDGE('',*,*,#31,.T.);
#31 = EDGE_CURVE('',#24,#24,#32,.T.);
#32 = CIRCLE('',#33,4.5);
#33 = AXIS2_PLACEMENT_3D('',#34,#35,#36);
#34 = CARTESIAN_POINT('',(2.5,-0.743902439024,4.53));
#35 = DIRECTION('',(0.E+000,-1.,0.E+000));
#36 = DIRECTION('',(1.,0.E+000,0.E+000));
#37 = ORIENTED_EDGE('',*,*,#21,.F.);
#38 = ORIENTED_EDGE('',*,*,#39,.F.);
#39 = EDGE_CURVE('',#22,#22,#40,.T.);
#40 = CIRCLE('',#41,4.5);
#41 = AXIS2_PLACEMENT_3D('',#42,#43,#44);
#42 = CARTESIAN_POINT('',(2.5,-0.656097560976,4.53));
#43 = DIRECTION('',(0.E+000,-1.,0.E+000));
#44 = DIRECTION('',(1.,0.E+000,0.E+000));
#45 = CYLINDRICAL_SURFACE('',#46,4.5);
#46 = AXIS2_PLACEMENT_3D('',#47,#48,#49);
#47 = CARTESIAN_POINT('',(2.5,1.1,4.53));
#48 = DIRECTION('',(0.E+000,1.,0.E+000));
#49 = DIRECTION('',(1.,0.E+000,0.E+000));
#50 = ADVANCED_FACE('',(#51,#71),#135,.T.);
#51 = FACE_BOUND('',#52,.F.);
#52 = EDGE_LOOP('',(#53,#54,#63,#70));
#53 = ORIENTED_EDGE('',*,*,#39,.T.);
#54 = ORIENTED_EDGE('',*,*,#55,.T.);
#55 = EDGE_CURVE('',#22,#56,#58,.T.);
#56 = VERTEX_POINT('',#57);
#57 = CARTESIAN_POINT('',(5.243902439024,1.1,4.53));
#58 = CIRCLE('',#59,1.756097560976);
#59 = AXIS2_PLACEMENT_3D('',#60,#61,#62);
#60 = CARTESIAN_POINT('',(5.243902439024,-0.656097560976,4.53));
#61 = DIRECTION('',(0.E+000,0.E+000,1.));
#62 = DIRECTION('',(1.,0.E+000,0.E+000));
#63 = ORIENTED_EDGE('',*,*,#64,.F.);
#64 = EDGE_CURVE('',#56,#56,#65,.T.);
#65 = CIRCLE('',#66,2.743902439024);
#66 = AXIS2_PLACEMENT_3D('',#67,#68,#69);
#67 = CARTESIAN_POINT('',(2.5,1.1,4.53));
#68 = DIRECTION('',(0.E+000,-1.,0.E+000));
#69 = DIRECTION('',(1.,0.E+000,0.E+000));
#70 = ORIENTED_EDGE('',*,*,#55,.F.);
#71 = FACE_BOUND('',#72,.F.);
#72 = EDGE_LOOP('',(#73,#100));
#73 = ORIENTED_EDGE('',*,*,#74,.T.);
#74 = EDGE_CURVE('',#75,#77,#79,.T.);
#75 = VERTEX_POINT('',#76);
#76 = CARTESIAN_POINT('',(0.27,0.E+000,0.768515176884));
#77 = VERTEX_POINT('',#78);
#78 = CARTESIAN_POINT('',(-0.182859292199,-0.198651653043,0.993009403597
));
#79 = B_SPLINE_CURVE_WITH_KNOTS('',7,(#80,#81,#82,#83,#84,#85,#86,#87,
#88,#89,#90,#91,#92,#93,#94,#95,#96,#97,#98,#99),.UNSPECIFIED.,.F.,
.F.,(8,6,6,8),(0.E+000,0.207941199659,0.563369569435,1.),
.UNSPECIFIED.);
#80 = CARTESIAN_POINT('',(0.27,-1.110223024625E-016,0.768515176884));
#81 = CARTESIAN_POINT('',(0.27,-1.799169365598E-002,0.760090728286));
#82 = CARTESIAN_POINT('',(0.268601357481,-3.611742085364E-002,
0.752751564333));
#83 = CARTESIAN_POINT('',(0.265766260608,-5.424854561981E-002,
0.746574853657));
#84 = CARTESIAN_POINT('',(0.261471704834,-7.224099966331E-002,
0.741626668812));
#85 = CARTESIAN_POINT('',(0.255714876664,-8.994015426468E-002,
0.737957386389));
#86 = CARTESIAN_POINT('',(0.248518537424,-0.107185692166,0.735597087126)
);
#87 = CARTESIAN_POINT('',(0.225267199459,-0.15224304248,0.732762831907)
);
#88 = CARTESIAN_POINT('',(0.206545522808,-0.178881134107,0.734813682796)
);
#89 = CARTESIAN_POINT('',(0.184034655537,-0.202927590776,0.740735335091)
);
#90 = CARTESIAN_POINT('',(0.158223821758,-0.223656189845,0.75034110177)
);
#91 = CARTESIAN_POINT('',(0.129782340488,-0.240495503791,0.763277029753)
);
#92 = CARTESIAN_POINT('',(9.949612970808E-002,-0.253076251007,
0.779077365071));
#93 = CARTESIAN_POINT('',(2.972393874786E-002,-0.271287006464,
0.819516986404));
#94 = CARTESIAN_POINT('',(-1.029381511536E-002,-0.274675414828,
0.845356948547));
#95 = CARTESIAN_POINT('',(-5.020389317721E-002,-0.271089586295,
0.873703033241));
#96 = CARTESIAN_POINT('',(-8.840581027789E-002,-0.260904803001,
0.903414384098));
#97 = CARTESIAN_POINT('',(-0.123738663624,-0.24490498214,0.933610908838)
);
#98 = CARTESIAN_POINT('',(-0.155421753273,-0.223907969166,0.963644850274
));
#99 = CARTESIAN_POINT('',(-0.182859292199,-0.198651653043,0.993009403597
));
#100 = ORIENTED_EDGE('',*,*,#101,.T.);
#101 = EDGE_CURVE('',#77,#75,#102,.T.);
#102 = B_SPLINE_CURVE_WITH_KNOTS('',7,(#103,#104,#105,#106,#107,#108,
#109,#110,#111,#112,#113,#114,#115,#116,#117,#118,#119,#120,#121,
#122,#123,#124,#125,#126,#127,#128,#129,#130,#131,#132,#133,#134),
.UNSPECIFIED.,.F.,.F.,(8,6,6,6,6,8),(0.E+000,0.269800054679,
0.450307562581,0.609477158887,0.7662308749,1.),.UNSPECIFIED.);
#103 = CARTESIAN_POINT('',(-0.182859292199,-0.198651653043,
0.993009403597));
#104 = CARTESIAN_POINT('',(-0.21280935685,-0.171082551354,1.025062944289
));
#105 = CARTESIAN_POINT('',(-0.237648817181,-0.138485902989,
1.056263155844));
#106 = CARTESIAN_POINT('',(-0.256595801229,-0.101887552668,
1.085914585349));
#107 = CARTESIAN_POINT('',(-0.269019490683,-6.236432797401E-002,
1.11335680782));
#108 = CARTESIAN_POINT('',(-0.274409041558,-2.109906324082E-002,
1.137857853998));
#109 = CARTESIAN_POINT('',(-0.272418280652,2.056894584438E-002,
1.158504652721));
#110 = CARTESIAN_POINT('',(-0.256677009467,8.828045723389E-002,
1.184789426993));
#111 = CARTESIAN_POINT('',(-0.247038602912,0.114920981814,1.193129153743
));
#112 = CARTESIAN_POINT('',(-0.234065473081,0.140586630575,1.19895476899)
);
#113 = CARTESIAN_POINT('',(-0.2178283254,0.164747937205,1.201922499998)
);
#114 = CARTESIAN_POINT('',(-0.198537877691,0.186842071574,1.20171177995)
);
#115 = CARTESIAN_POINT('',(-0.176573668594,0.206335101726,1.198111616962
));
#116 = CARTESIAN_POINT('',(-0.131231887285,0.237362601094,1.184999727496
));
#117 = CARTESIAN_POINT('',(-0.108317900619,0.249572433149,1.176233864495
));
#118 = CARTESIAN_POINT('',(-8.411638116116E-002,0.25916307191,
1.164857947351));
#119 = CARTESIAN_POINT('',(-5.90780022989E-002,0.265952327469,
1.151018555097));
#120 = CARTESIAN_POINT('',(-3.367838580671E-002,0.269880800048,
1.135005947769));
#121 = CARTESIAN_POINT('',(-8.3792057248E-003,0.271009688254,
1.11722614586));
#122 = CARTESIAN_POINT('',(4.081022613332E-002,0.268015701622,
1.079336181171));
#123 = CARTESIAN_POINT('',(6.472979710574E-002,0.263971500249,
1.059255003372));
#124 = CARTESIAN_POINT('',(8.785218148939E-002,0.257513791221,
1.038259511073));
#125 = CARTESIAN_POINT('',(0.109934532243,0.248826273528,1.016713110464)
);
#126 = CARTESIAN_POINT('',(0.130792689642,0.238094993185,0.994938979589)
);
#127 = CARTESIAN_POINT('',(0.150283866618,0.22548696843,0.973209030342)
);
#128 = CARTESIAN_POINT('',(0.195119402623,0.189753233242,0.919769538033)
);
#129 = CARTESIAN_POINT('',(0.218600788119,0.164529979746,0.888442468127)
);
#130 = CARTESIAN_POINT('',(0.238296770446,0.135978850289,0.858579846153)
);
#131 = CARTESIAN_POINT('',(0.25375668175,0.104579154911,0.830931532465)
);
#132 = CARTESIAN_POINT('',(0.264483725307,7.091049886241E-002,
0.806246440669));
#133 = CARTESIAN_POINT('',(0.27,3.572988975245E-002,0.785245376129));
#134 = CARTESIAN_POINT('',(0.27,-8.326672684689E-017,0.768515176884));
#135 = TOROIDAL_SURFACE('',#136,2.743902439024,1.756097560976);
#136 = AXIS2_PLACEMENT_3D('',#137,#138,#139);
#137 = CARTESIAN_POINT('',(2.5,-0.656097560976,4.53));
#138 = DIRECTION('',(0.E+000,1.,0.E+000));
#139 = DIRECTION('',(1.,0.E+000,0.E+000));
#140 = ADVANCED_FACE('',(#141,#161),#236,.T.);
#141 = FACE_BOUND('',#142,.T.);
#142 = EDGE_LOOP('',(#143,#144,#153,#160));
#143 = ORIENTED_EDGE('',*,*,#31,.T.);
#144 = ORIENTED_EDGE('',*,*,#145,.T.);
#145 = EDGE_CURVE('',#24,#146,#148,.T.);
#146 = VERTEX_POINT('',#147);
#147 = CARTESIAN_POINT('',(5.243902439024,-2.5,4.53));
#148 = CIRCLE('',#149,1.756097560976);
#149 = AXIS2_PLACEMENT_3D('',#150,#151,#152);
#150 = CARTESIAN_POINT('',(5.243902439024,-0.743902439024,4.53));
#151 = DIRECTION('',(0.E+000,0.E+000,-1.));
#152 = DIRECTION('',(1.,0.E+000,0.E+000));
#153 = ORIENTED_EDGE('',*,*,#154,.F.);
#154 = EDGE_CURVE('',#146,#146,#155,.T.);
#155 = CIRCLE('',#156,2.743902439024);
#156 = AXIS2_PLACEMENT_3D('',#157,#158,#159);
#157 = CARTESIAN_POINT('',(2.5,-2.5,4.53));
#158 = DIRECTION('',(0.E+000,-1.,0.E+000));
#159 = DIRECTION('',(1.,0.E+000,0.E+000));
#160 = ORIENTED_EDGE('',*,*,#145,.F.);
#161 = FACE_BOUND('',#162,.T.);
#162 = EDGE_LOOP('',(#163,#182));
#163 = ORIENTED_EDGE('',*,*,#164,.T.);
#164 = EDGE_CURVE('',#165,#167,#169,.T.);
#165 = VERTEX_POINT('',#166);
#166 = CARTESIAN_POINT('',(5.27,-1.4,1.146397175416));
#167 = VERTEX_POINT('',#168);
#168 = CARTESIAN_POINT('',(5.076243401591,-1.140988525903,0.896036693393
));
#169 = B_SPLINE_CURVE_WITH_KNOTS('',6,(#170,#171,#172,#173,#174,#175,
#176,#177,#178,#179,#180,#181),.UNSPECIFIED.,.F.,.F.,(7,5,7),(
0.E+000,0.605712982953,1.),.UNSPECIFIED.);
#170 = CARTESIAN_POINT('',(5.27,-1.4,1.146397175416));
#171 = CARTESIAN_POINT('',(5.27,-1.364823133014,1.128086408744));
#172 = CARTESIAN_POINT('',(5.264500377601,-1.329983308158,1.106865657865
));
#173 = CARTESIAN_POINT('',(5.253698859894,-1.296420360753,1.083377036825
));
#174 = CARTESIAN_POINT('',(5.237928636809,-1.264973838758,1.058156561504
));
#175 = CARTESIAN_POINT('',(5.217609698003,-1.236413432947,1.03167094705)
);
#176 = CARTESIAN_POINT('',(5.177433862559,-1.195227281701,0.986663501604
));
#177 = CARTESIAN_POINT('',(5.159895835979,-1.180523901062,0.968593836779
));
#178 = CARTESIAN_POINT('',(5.140807945679,-1.167553771804,0.950334322005
));
#179 = CARTESIAN_POINT('',(5.120348754047,-1.156519022037,0.932034640251
));
#180 = CARTESIAN_POINT('',(5.098737472653,-1.147609948755,0.913867625354
));
#181 = CARTESIAN_POINT('',(5.076243401591,-1.140988525903,0.896036693393
));
#182 = ORIENTED_EDGE('',*,*,#183,.T.);
#183 = EDGE_CURVE('',#167,#165,#184,.T.);
#184 = B_SPLINE_CURVE_WITH_KNOTS('',8,(#185,#186,#187,#188,#189,#190,
#191,#192,#193,#194,#195,#196,#197,#198,#199,#200,#201,#202,#203,
#204,#205,#206,#207,#208,#209,#210,#211,#212,#213,#214,#215,#216,
#217,#218,#219,#220,#221,#222,#223,#224,#225,#226,#227,#228,#229,
#230,#231,#232,#233,#234,#235),.UNSPECIFIED.,.F.,.F.,(9,7,7,7,7,7,7,
9),(0.E+000,0.269507246689,0.418643316298,0.551977439913,
0.685876998968,0.807544569199,0.920562305125,1.),.UNSPECIFIED.);
#185 = CARTESIAN_POINT('',(5.076243401591,-1.140988525903,0.896036693393
));
#186 = CARTESIAN_POINT('',(5.032754470227,-1.128186992418,0.861563245964
));
#187 = CARTESIAN_POINT('',(4.985879345823,-1.123456819452,0.828092959131
));
#188 = CARTESIAN_POINT('',(4.937675709951,-1.128082670346,0.797268638989
));
#189 = CARTESIAN_POINT('',(4.890694256142,-1.142530416234,0.770801602717
));
#190 = CARTESIAN_POINT('',(4.847520267973,-1.166272115329,0.750296333805
));
#191 = CARTESIAN_POINT('',(4.810378142268,-1.197958018874,0.737085897934
));
#192 = CARTESIAN_POINT('',(4.780852303046,-1.235594331791,0.731880216049
));
#193 = CARTESIAN_POINT('',(4.747978786486,-1.299774359938,0.736101566663
));
#194 = CARTESIAN_POINT('',(4.738829238855,-1.323763747338,0.740031341327
));
#195 = CARTESIAN_POINT('',(4.732370494374,-1.348489708368,0.74637348432)
);
#196 = CARTESIAN_POINT('',(4.72863556948,-1.373561872553,0.755037260574)
);
#197 = CARTESIAN_POINT('',(4.727582630979,-1.398617642024,0.765874300772
));
#198 = CARTESIAN_POINT('',(4.729116616668,-1.42333823051,0.77869667704)
);
#199 = CARTESIAN_POINT('',(4.733110741471,-1.447452137296,0.79329356029)
);
#200 = CARTESIAN_POINT('',(4.745075693435,-1.491533950429,0.823887852368
));
#201 = CARTESIAN_POINT('',(4.75258035729,-1.511671244607,0.839573360413)
);
#202 = CARTESIAN_POINT('',(4.761845204117,-1.530977781099,0.856350854636
));
#203 = CARTESIAN_POINT('',(4.772767455102,-1.549313260795,0.874061146177
));
#204 = CARTESIAN_POINT('',(4.785243673367,-1.566552772866,0.892540670569
));
#205 = CARTESIAN_POINT('',(4.799172706314,-1.582581676653,0.911622240772
));
#206 = CARTESIAN_POINT('',(4.814456126088,-1.597289835602,0.931133868663
));
#207 = CARTESIAN_POINT('',(4.847606352267,-1.623896868312,0.970741245939
));
#208 = CARTESIAN_POINT('',(4.86547376964,-1.635775493048,0.990827097158)
);
#209 = CARTESIAN_POINT('',(4.884504566105,-1.646097074007,1.010979906491
));
#210 = CARTESIAN_POINT('',(4.904595591602,-1.654741302139,1.031003560432
));
#211 = CARTESIAN_POINT('',(4.925621107839,-1.661574774199,1.050671464426
));
#212 = CARTESIAN_POINT('',(4.947422754943,-1.666459516091,1.069728122722
));
#213 = CARTESIAN_POINT('',(4.969802777137,-1.669266818141,1.087899967766
));
#214 = CARTESIAN_POINT('',(5.013162928234,-1.670468434574,1.120376513673
));
#215 = CARTESIAN_POINT('',(5.034083229453,-1.669242431639,1.1348820823)
);
#216 = CARTESIAN_POINT('',(5.055054578214,-1.666142488067,1.148194080858
));
#217 = CARTESIAN_POINT('',(5.075833926665,-1.661135250898,1.160099429252
));
#218 = CARTESIAN_POINT('',(5.096171719557,-1.654234641345,1.17042755696)
);
#219 = CARTESIAN_POINT('',(5.115822581876,-1.645503422961,1.179061033511
));
#220 = CARTESIAN_POINT('',(5.134556986531,-1.635051596291,1.185939303937
));
#221 = CARTESIAN_POINT('',(5.168538360625,-1.611866191936,1.195808021569
));
#222 = CARTESIAN_POINT('',(5.183944884264,-1.599343362628,1.199042001606
));
#223 = CARTESIAN_POINT('',(5.198235061955,-1.585580296333,1.200750711693
));
#224 = CARTESIAN_POINT('',(5.211278983421,-1.570717981947,1.200968827103
));
#225 = CARTESIAN_POINT('',(5.222976912011,-1.554910816973,1.199760596188
));
#226 = CARTESIAN_POINT('',(5.23325851634,-1.538318051236,1.197209273404)
);
#227 = CARTESIAN_POINT('',(5.242079660716,-1.521097090335,1.193407845185
));
#228 = CARTESIAN_POINT('',(5.254573836995,-1.490958818424,1.184967024792
));
#229 = CARTESIAN_POINT('',(5.258998075745,-1.47828228499,1.180911962581)
);
#230 = CARTESIAN_POINT('',(5.262681694909,-1.465420308205,1.176318580899
));
#231 = CARTESIAN_POINT('',(5.265621480913,-1.452422550717,1.171219653765
));
#232 = CARTESIAN_POINT('',(5.267818109158,-1.439336884212,1.165647497387
));
#233 = CARTESIAN_POINT('',(5.269275470879,-1.42620918546,1.159633457193)
);
#234 = CARTESIAN_POINT('',(5.27,-1.413083132362,1.153207394874));
#235 = CARTESIAN_POINT('',(5.27,-1.4,1.146397175416));
#236 = TOROIDAL_SURFACE('',#237,2.743902439024,1.756097560976);
#237 = AXIS2_PLACEMENT_3D('',#238,#239,#240);
#238 = CARTESIAN_POINT('',(2.5,-0.743902439024,4.53));
#239 = DIRECTION('',(0.E+000,-1.,0.E+000));
#240 = DIRECTION('',(1.,0.E+000,0.E+000));
#241 = ADVANCED_FACE('',(#242),#245,.F.);
#242 = FACE_BOUND('',#243,.F.);
#243 = EDGE_LOOP('',(#244));
#244 = ORIENTED_EDGE('',*,*,#64,.T.);
#245 = PLANE('',#246);
#246 = AXIS2_PLACEMENT_3D('',#247,#248,#249);
#247 = CARTESIAN_POINT('',(2.5,1.1,4.53));
#248 = DIRECTION('',(-0.E+000,-1.,-0.E+000));
#249 = DIRECTION('',(0.E+000,0.E+000,-1.));
#250 = ADVANCED_FACE('',(#251),#271,.T.);
#251 = FACE_BOUND('',#252,.T.);
#252 = EDGE_LOOP('',(#253,#254,#262,#269,#270));
#253 = ORIENTED_EDGE('',*,*,#101,.T.);
#254 = ORIENTED_EDGE('',*,*,#255,.T.);
#255 = EDGE_CURVE('',#75,#256,#258,.T.);
#256 = VERTEX_POINT('',#257);
#257 = CARTESIAN_POINT('',(0.27,0.E+000,-2.892));
#258 = LINE('',#259,#260);
#259 = CARTESIAN_POINT('',(0.27,0.E+000,4.53));
#260 = VECTOR('',#261,1.);
#261 = DIRECTION('',(-0.E+000,-0.E+000,-1.));
#262 = ORIENTED_EDGE('',*,*,#263,.T.);
#263 = EDGE_CURVE('',#256,#256,#264,.T.);
#264 = CIRCLE('',#265,0.27);
#265 = AXIS2_PLACEMENT_3D('',#266,#267,#268);
#266 = CARTESIAN_POINT('',(0.E+000,0.E+000,-2.892));
#267 = DIRECTION('',(0.E+000,0.E+000,1.));
#268 = DIRECTION('',(1.,0.E+000,0.E+000));
#269 = ORIENTED_EDGE('',*,*,#255,.F.);
#270 = ORIENTED_EDGE('',*,*,#74,.T.);
#271 = CYLINDRICAL_SURFACE('',#272,0.27);
#272 = AXIS2_PLACEMENT_3D('',#273,#274,#275);
#273 = CARTESIAN_POINT('',(0.E+000,0.E+000,4.53));
#274 = DIRECTION('',(0.E+000,0.E+000,1.));
#275 = DIRECTION('',(1.,0.E+000,0.E+000));
#276 = ADVANCED_FACE('',(#277),#280,.T.);
#277 = FACE_BOUND('',#278,.T.);
#278 = EDGE_LOOP('',(#279));
#279 = ORIENTED_EDGE('',*,*,#154,.T.);
#280 = PLANE('',#281);
#281 = AXIS2_PLACEMENT_3D('',#282,#283,#284);
#282 = CARTESIAN_POINT('',(2.5,-2.5,4.53));
#283 = DIRECTION('',(-0.E+000,-1.,-0.E+000));
#284 = DIRECTION('',(0.E+000,0.E+000,-1.));
#285 = ADVANCED_FACE('',(#286),#306,.T.);
#286 = FACE_BOUND('',#287,.T.);
#287 = EDGE_LOOP('',(#288,#289,#297,#304,#305));
#288 = ORIENTED_EDGE('',*,*,#164,.F.);
#289 = ORIENTED_EDGE('',*,*,#290,.T.);
#290 = EDGE_CURVE('',#165,#291,#293,.T.);
#291 = VERTEX_POINT('',#292);
#292 = CARTESIAN_POINT('',(5.27,-1.4,-2.892));
#293 = LINE('',#294,#295);
#294 = CARTESIAN_POINT('',(5.27,-1.4,4.53));
#295 = VECTOR('',#296,1.);
#296 = DIRECTION('',(-0.E+000,-0.E+000,-1.));
#297 = ORIENTED_EDGE('',*,*,#298,.T.);
#298 = EDGE_CURVE('',#291,#291,#299,.T.);
#299 = CIRCLE('',#300,0.27);
#300 = AXIS2_PLACEMENT_3D('',#301,#302,#303);
#301 = CARTESIAN_POINT('',(5.,-1.4,-2.892));
#302 = DIRECTION('',(0.E+000,0.E+000,1.));
#303 = DIRECTION('',(1.,0.E+000,0.E+000));
#304 = ORIENTED_EDGE('',*,*,#290,.F.);
#305 = ORIENTED_EDGE('',*,*,#183,.F.);
#306 = CYLINDRICAL_SURFACE('',#307,0.27);
#307 = AXIS2_PLACEMENT_3D('',#308,#309,#310);
#308 = CARTESIAN_POINT('',(5.,-1.4,4.53));
#309 = DIRECTION('',(0.E+000,0.E+000,1.));
#310 = DIRECTION('',(1.,0.E+000,0.E+000));
#311 = ADVANCED_FACE('',(#312),#332,.T.);
#312 = FACE_BOUND('',#313,.F.);
#313 = EDGE_LOOP('',(#314,#323,#324,#325));
#314 = ORIENTED_EDGE('',*,*,#315,.F.);
#315 = EDGE_CURVE('',#256,#316,#318,.T.);
#316 = VERTEX_POINT('',#317);
#317 = CARTESIAN_POINT('',(0.162,0.E+000,-3.));
#318 = CIRCLE('',#319,0.108);
#319 = AXIS2_PLACEMENT_3D('',#320,#321,#322);
#320 = CARTESIAN_POINT('',(0.162,0.E+000,-2.892));
#321 = DIRECTION('',(-0.E+000,1.,0.E+000));
#322 = DIRECTION('',(1.,0.E+000,0.E+000));
#323 = ORIENTED_EDGE('',*,*,#263,.T.);
#324 = ORIENTED_EDGE('',*,*,#315,.T.);
#325 = ORIENTED_EDGE('',*,*,#326,.F.);
#326 = EDGE_CURVE('',#316,#316,#327,.T.);
#327 = CIRCLE('',#328,0.162);
#328 = AXIS2_PLACEMENT_3D('',#329,#330,#331);
#329 = CARTESIAN_POINT('',(0.E+000,0.E+000,-3.));
#330 = DIRECTION('',(0.E+000,0.E+000,1.));
#331 = DIRECTION('',(1.,0.E+000,0.E+000));
#332 = TOROIDAL_SURFACE('',#333,0.162,0.108);
#333 = AXIS2_PLACEMENT_3D('',#334,#335,#336);
#334 = CARTESIAN_POINT('',(0.E+000,0.E+000,-2.892));
#335 = DIRECTION('',(-0.E+000,-0.E+000,-1.));
#336 = DIRECTION('',(1.,0.E+000,0.E+000));
#337 = ADVANCED_FACE('',(#338),#358,.T.);
#338 = FACE_BOUND('',#339,.F.);
#339 = EDGE_LOOP('',(#340,#349,#350,#351));
#340 = ORIENTED_EDGE('',*,*,#341,.F.);
#341 = EDGE_CURVE('',#291,#342,#344,.T.);
#342 = VERTEX_POINT('',#343);
#343 = CARTESIAN_POINT('',(5.162,-1.4,-3.));
#344 = CIRCLE('',#345,0.108);
#345 = AXIS2_PLACEMENT_3D('',#346,#347,#348);
#346 = CARTESIAN_POINT('',(5.162,-1.4,-2.892));
#347 = DIRECTION('',(-0.E+000,1.,0.E+000));
#348 = DIRECTION('',(1.,0.E+000,0.E+000));
#349 = ORIENTED_EDGE('',*,*,#298,.T.);
#350 = ORIENTED_EDGE('',*,*,#341,.T.);
#351 = ORIENTED_EDGE('',*,*,#352,.F.);
#352 = EDGE_CURVE('',#342,#342,#353,.T.);
#353 = CIRCLE('',#354,0.162);
#354 = AXIS2_PLACEMENT_3D('',#355,#356,#357);
#355 = CARTESIAN_POINT('',(5.,-1.4,-3.));
#356 = DIRECTION('',(0.E+000,0.E+000,1.));
#357 = DIRECTION('',(1.,0.E+000,0.E+000));
#358 = TOROIDAL_SURFACE('',#359,0.162,0.108);
#359 = AXIS2_PLACEMENT_3D('',#360,#361,#362);
#360 = CARTESIAN_POINT('',(5.,-1.4,-2.892));
#361 = DIRECTION('',(-0.E+000,-0.E+000,-1.));
#362 = DIRECTION('',(1.,0.E+000,0.E+000));
#363 = ADVANCED_FACE('',(#364),#367,.F.);
#364 = FACE_BOUND('',#365,.F.);
#365 = EDGE_LOOP('',(#366));
#366 = ORIENTED_EDGE('',*,*,#326,.T.);
#367 = PLANE('',#368);
#368 = AXIS2_PLACEMENT_3D('',#369,#370,#371);
#369 = CARTESIAN_POINT('',(-1.978356673234E-017,2.854531227236E-017,-3.)
);
#370 = DIRECTION('',(0.E+000,0.E+000,1.));
#371 = DIRECTION('',(1.,0.E+000,0.E+000));
#372 = ADVANCED_FACE('',(#373),#376,.F.);
#373 = FACE_BOUND('',#374,.F.);
#374 = EDGE_LOOP('',(#375));
#375 = ORIENTED_EDGE('',*,*,#352,.T.);
#376 = PLANE('',#377);
#377 = AXIS2_PLACEMENT_3D('',#378,#379,#380);
#378 = CARTESIAN_POINT('',(5.,-1.4,-3.));
#379 = DIRECTION('',(0.E+000,0.E+000,1.));
#380 = DIRECTION('',(1.,0.E+000,0.E+000));
#381 = ( GEOMETRIC_REPRESENTATION_CONTEXT(3)
GLOBAL_UNCERTAINTY_ASSIGNED_CONTEXT((#385)) GLOBAL_UNIT_ASSIGNED_CONTEXT
((#382,#383,#384)) REPRESENTATION_CONTEXT('Context #1',
'3D Context with UNIT and UNCERTAINTY') );
#382 = ( LENGTH_UNIT() NAMED_UNIT(*) SI_UNIT(.MILLI.,.METRE.) );
#383 = ( NAMED_UNIT(*) PLANE_ANGLE_UNIT() SI_UNIT($,.RADIAN.) );
#384 = ( NAMED_UNIT(*) SI_UNIT($,.STERADIAN.) SOLID_ANGLE_UNIT() );
#385 = UNCERTAINTY_MEASURE_WITH_UNIT(LENGTH_MEASURE(1.E-007),#382,
'distance_accuracy_value','confusion accuracy');
#386 = PRODUCT_RELATED_PRODUCT_CATEGORY('part',$,(#7));
#387 = MECHANICAL_DESIGN_GEOMETRIC_PRESENTATION_REPRESENTATION('',(#388,
#396,#403,#410,#417,#425,#432,#439,#446,#453,#460),#381);
#388 = STYLED_ITEM('color',(#389),#17);
#389 = PRESENTATION_STYLE_ASSIGNMENT((#390));
#390 = SURFACE_STYLE_USAGE(.BOTH.,#391);
#391 = SURFACE_SIDE_STYLE('',(#392));
#392 = SURFACE_STYLE_FILL_AREA(#393);
#393 = FILL_AREA_STYLE('',(#394));
#394 = FILL_AREA_STYLE_COLOUR('',#395);
#395 = COLOUR_RGB('',0.136999994516,0.402000010014,0.726999998093);
#396 = STYLED_ITEM('color',(#397),#50);
#397 = PRESENTATION_STYLE_ASSIGNMENT((#398));
#398 = SURFACE_STYLE_USAGE(.BOTH.,#399);
#399 = SURFACE_SIDE_STYLE('',(#400));
#400 = SURFACE_STYLE_FILL_AREA(#401);
#401 = FILL_AREA_STYLE('',(#402));
#402 = FILL_AREA_STYLE_COLOUR('',#395);
#403 = STYLED_ITEM('color',(#404),#140);
#404 = PRESENTATION_STYLE_ASSIGNMENT((#405));
#405 = SURFACE_STYLE_USAGE(.BOTH.,#406);
#406 = SURFACE_SIDE_STYLE('',(#407));
#407 = SURFACE_STYLE_FILL_AREA(#408);
#408 = FILL_AREA_STYLE('',(#409));
#409 = FILL_AREA_STYLE_COLOUR('',#395);
#410 = STYLED_ITEM('color',(#411),#241);
#411 = PRESENTATION_STYLE_ASSIGNMENT((#412));
#412 = SURFACE_STYLE_USAGE(.BOTH.,#413);
#413 = SURFACE_SIDE_STYLE('',(#414));
#414 = SURFACE_STYLE_FILL_AREA(#415);
#415 = FILL_AREA_STYLE('',(#416));
#416 = FILL_AREA_STYLE_COLOUR('',#395);
#417 = STYLED_ITEM('color',(#418),#250);
#418 = PRESENTATION_STYLE_ASSIGNMENT((#419));
#419 = SURFACE_STYLE_USAGE(.BOTH.,#420);
#420 = SURFACE_SIDE_STYLE('',(#421));
#421 = SURFACE_STYLE_FILL_AREA(#422);
#422 = FILL_AREA_STYLE('',(#423));
#423 = FILL_AREA_STYLE_COLOUR('',#424);
#424 = COLOUR_RGB('',0.824000000954,0.819999992847,0.78100001812);
#425 = STYLED_ITEM('color',(#426),#276);
#426 = PRESENTATION_STYLE_ASSIGNMENT((#427));
#427 = SURFACE_STYLE_USAGE(.BOTH.,#428);
#428 = SURFACE_SIDE_STYLE('',(#429));
#429 = SURFACE_STYLE_FILL_AREA(#430);
#430 = FILL_AREA_STYLE('',(#431));
#431 = FILL_AREA_STYLE_COLOUR('',#395);
#432 = STYLED_ITEM('color',(#433),#285);
#433 = PRESENTATION_STYLE_ASSIGNMENT((#434));
#434 = SURFACE_STYLE_USAGE(.BOTH.,#435);
#435 = SURFACE_SIDE_STYLE('',(#436));
#436 = SURFACE_STYLE_FILL_AREA(#437);
#437 = FILL_AREA_STYLE('',(#438));
#438 = FILL_AREA_STYLE_COLOUR('',#424);
#439 = STYLED_ITEM('color',(#440),#311);
#440 = PRESENTATION_STYLE_ASSIGNMENT((#441));
#441 = SURFACE_STYLE_USAGE(.BOTH.,#442);
#442 = SURFACE_SIDE_STYLE('',(#443));
#443 = SURFACE_STYLE_FILL_AREA(#444);
#444 = FILL_AREA_STYLE('',(#445));
#445 = FILL_AREA_STYLE_COLOUR('',#424);
#446 = STYLED_ITEM('color',(#447),#337);
#447 = PRESENTATION_STYLE_ASSIGNMENT((#448));
#448 = SURFACE_STYLE_USAGE(.BOTH.,#449);
#449 = SURFACE_SIDE_STYLE('',(#450));
#450 = SURFACE_STYLE_FILL_AREA(#451);
#451 = FILL_AREA_STYLE('',(#452));
#452 = FILL_AREA_STYLE_COLOUR('',#424);
#453 = STYLED_ITEM('color',(#454),#363);
#454 = PRESENTATION_STYLE_ASSIGNMENT((#455));
#455 = SURFACE_STYLE_USAGE(.BOTH.,#456);
#456 = SURFACE_SIDE_STYLE('',(#457));
#457 = SURFACE_STYLE_FILL_AREA(#458);
#458 = FILL_AREA_STYLE('',(#459));
#459 = FILL_AREA_STYLE_COLOUR('',#424);
#460 = STYLED_ITEM('color',(#461),#372);
#461 = PRESENTATION_STYLE_ASSIGNMENT((#462));
#462 = SURFACE_STYLE_USAGE(.BOTH.,#463);
#463 = SURFACE_SIDE_STYLE('',(#464));
#464 = SURFACE_STYLE_FILL_AREA(#465);
#465 = FILL_AREA_STYLE('',(#466));
#466 = FILL_AREA_STYLE_COLOUR('',#424);
ENDSEC;
END-ISO-10303-21;
