ISO-10303-21;
HEADER;
/* RV_Disc_D15.5mm_W4.2mm_P7.5mm.step 3D STEP model for use in ECAD systems
 * Copyright (C) 2018, kicad StepUp
 * 
 * This work is licensed under the [Creative Commons CC-BY-SA 4.0 License](https://creativecommons.org/licenses/by-sa/4.0/legalcode), 
 * with the following exception:
 * To the extent that the creation of electronic designs that use 'Licensed Material' can be considered to be 'Adapted Material', 
 * then the copyright holder waives article 3 of the license with respect to these designs and any generated files which use data provided 
 * as part of the 'Licensed Material'.
 * You are free to use the library data in your own projects without the obligation to share your project files under this or any other license agreement.
 * However, if you wish to redistribute these libraries, or parts thereof (including in modified form) as a collection then the exception above does not apply. 
 * Please refer to https://github.com/KiCad/kicad-packages3D/blob/master/LICENSE.md for further clarification of the exception.
 * Disclaimer of Warranties and Limitation of Liability.
 * These libraries are provided in the hope that they will be useful, but are provided without warranty of any kind, express or implied.
 * *USE 3D CAD DATA AT YOUR OWN RISK*
 * *DO NOT RELY UPON ANY INFORMATION FOUND HERE WITHOUT INDEPENDENT VERIFICATION.*
 * 
 */

FILE_DESCRIPTION(
/* description */ ('model of RV_Disc_D15.5mm_W4.2mm_P7.5mm'),
/* implementation_level */ '2;1');

FILE_NAME(
/* name */ 'RV_Disc_D15.5mm_W4.2mm_P7.5mm.step',
/* time_stamp */ '2018-11-11T20:57:52',
/* author */ ('kicad StepUp','ksu'),
/* organization */ ('FreeCAD'),
/* preprocessor_version */ 'OCC',
/* originating_system */ 'kicad StepUp',
/* authorisation */ '');

FILE_SCHEMA(('AUTOMOTIVE_DESIGN { 1 0 10303 214 1 1 1 1 }'));
ENDSEC;

DATA;
#1 = APPLICATION_PROTOCOL_DEFINITION('international standard',
'automotive_design',2000,#2);
#2 = APPLICATION_CONTEXT(
'core data for automotive mechanical design processes');
#3 = SHAPE_DEFINITION_REPRESENTATION(#4,#10);
#4 = PRODUCT_DEFINITION_SHAPE('','',#5);
#5 = PRODUCT_DEFINITION('design','',#6,#9);
#6 = PRODUCT_DEFINITION_FORMATION('','',#7);
#7 = PRODUCT('RV_Disc_D155mm_W42mm_P75mm','RV_Disc_D155mm_W42mm_P75mm',
'',(#8));
#8 = PRODUCT_CONTEXT('',#2,'mechanical');
#9 = PRODUCT_DEFINITION_CONTEXT('part definition',#2,'design');
#10 = ADVANCED_BREP_SHAPE_REPRESENTATION('',(#11,#15),#379);
#11 = AXIS2_PLACEMENT_3D('',#12,#13,#14);
#12 = CARTESIAN_POINT('',(0.E+000,0.E+000,0.E+000));
#13 = DIRECTION('',(0.E+000,0.E+000,1.));
#14 = DIRECTION('',(1.,0.E+000,-0.E+000));
#15 = MANIFOLD_SOLID_BREP('',#16);
#16 = CLOSED_SHELL('',(#17,#50,#146,#239,#248,#274,#283,#309,#335,#361,
#370));
#17 = ADVANCED_FACE('',(#18),#45,.T.);
#18 = FACE_BOUND('',#19,.F.);
#19 = EDGE_LOOP('',(#20,#30,#37,#38));
#20 = ORIENTED_EDGE('',*,*,#21,.T.);
#21 = EDGE_CURVE('',#22,#24,#26,.T.);
#22 = VERTEX_POINT('',#23);
#23 = CARTESIAN_POINT('',(11.5,-0.798780487805,7.78));
#24 = VERTEX_POINT('',#25);
#25 = CARTESIAN_POINT('',(11.5,-0.901219512195,7.78));
#26 = LINE('',#27,#28);
#27 = CARTESIAN_POINT('',(11.5,1.25,7.78));
#28 = VECTOR('',#29,1.);
#29 = DIRECTION('',(0.E+000,-1.,0.E+000));
#30 = ORIENTED_EDGE('',*,*,#31,.T.);
#31 = EDGE_CURVE('',#24,#24,#32,.T.);
#32 = CIRCLE('',#33,7.75);
#33 = AXIS2_PLACEMENT_3D('',#34,#35,#36);
#34 = CARTESIAN_POINT('',(3.75,-0.901219512195,7.78));
#35 = DIRECTION('',(0.E+000,-1.,0.E+000));
#36 = DIRECTION('',(1.,0.E+000,0.E+000));
#37 = ORIENTED_EDGE('',*,*,#21,.F.);
#38 = ORIENTED_EDGE('',*,*,#39,.F.);
#39 = EDGE_CURVE('',#22,#22,#40,.T.);
#40 = CIRCLE('',#41,7.75);
#41 = AXIS2_PLACEMENT_3D('',#42,#43,#44);
#42 = CARTESIAN_POINT('',(3.75,-0.798780487805,7.78));
#43 = DIRECTION('',(0.E+000,-1.,0.E+000));
#44 = DIRECTION('',(1.,0.E+000,0.E+000));
#45 = CYLINDRICAL_SURFACE('',#46,7.75);
#46 = AXIS2_PLACEMENT_3D('',#47,#48,#49);
#47 = CARTESIAN_POINT('',(3.75,1.25,7.78));
#48 = DIRECTION('',(0.E+000,1.,0.E+000));
#49 = DIRECTION('',(1.,0.E+000,0.E+000));
#50 = ADVANCED_FACE('',(#51,#71),#141,.T.);
#51 = FACE_BOUND('',#52,.F.);
#52 = EDGE_LOOP('',(#53,#54,#63,#70));
#53 = ORIENTED_EDGE('',*,*,#39,.T.);
#54 = ORIENTED_EDGE('',*,*,#55,.T.);
#55 = EDGE_CURVE('',#22,#56,#58,.T.);
#56 = VERTEX_POINT('',#57);
#57 = CARTESIAN_POINT('',(9.451219512195,1.25,7.78));
#58 = CIRCLE('',#59,2.048780487805);
#59 = AXIS2_PLACEMENT_3D('',#60,#61,#62);
#60 = CARTESIAN_POINT('',(9.451219512195,-0.798780487805,7.78));
#61 = DIRECTION('',(0.E+000,0.E+000,1.));
#62 = DIRECTION('',(1.,0.E+000,0.E+000));
#63 = ORIENTED_EDGE('',*,*,#64,.F.);
#64 = EDGE_CURVE('',#56,#56,#65,.T.);
#65 = CIRCLE('',#66,5.701219512195);
#66 = AXIS2_PLACEMENT_3D('',#67,#68,#69);
#67 = CARTESIAN_POINT('',(3.75,1.25,7.78));
#68 = DIRECTION('',(0.E+000,-1.,0.E+000));
#69 = DIRECTION('',(1.,0.E+000,0.E+000));
#70 = ORIENTED_EDGE('',*,*,#55,.F.);
#71 = FACE_BOUND('',#72,.F.);
#72 = EDGE_LOOP('',(#73,#100));
#73 = ORIENTED_EDGE('',*,*,#74,.T.);
#74 = EDGE_CURVE('',#75,#77,#79,.T.);
#75 = VERTEX_POINT('',#76);
#76 = CARTESIAN_POINT('',(0.36,0.E+000,0.991504158674));
#77 = VERTEX_POINT('',#78);
#78 = CARTESIAN_POINT('',(-6.76107063654E-002,-0.35359410683,
1.091803257066));
#79 = B_SPLINE_CURVE_WITH_KNOTS('',7,(#80,#81,#82,#83,#84,#85,#86,#87,
#88,#89,#90,#91,#92,#93,#94,#95,#96,#97,#98,#99),.UNSPECIFIED.,.F.,
.F.,(8,6,6,8),(0.E+000,0.290504651346,0.512426782371,1.),
.UNSPECIFIED.);
#80 = CARTESIAN_POINT('',(0.36,-1.110223024625E-016,0.991504158674));
#81 = CARTESIAN_POINT('',(0.36,-2.477329186331E-002,0.97978042384));
#82 = CARTESIAN_POINT('',(0.358011083295,-4.977316605684E-002,
0.969447641558));
#83 = CARTESIAN_POINT('',(0.353967887137,-7.481326104746E-002,
0.960623551712));
#84 = CARTESIAN_POINT('',(0.347824267253,-9.968433028859E-002,
0.953410114165));
#85 = CARTESIAN_POINT('',(0.339564290487,-0.124155085621,0.947884916734)
);
#86 = CARTESIAN_POINT('',(0.329212534368,-0.147979354162,0.944093551511)
);
#87 = CARTESIAN_POINT('',(0.307394896498,-0.188426368511,0.940476472583)
);
#88 = CARTESIAN_POINT('',(0.296767776976,-0.205423702921,0.939925639397)
);
#89 = CARTESIAN_POINT('',(0.284994598248,-0.221791542373,0.940394114776)
);
#90 = CARTESIAN_POINT('',(0.27212192846,-0.237424108776,0.941872083452)
);
#91 = CARTESIAN_POINT('',(0.258209400609,-0.252221720501,0.944337919931)
);
#92 = CARTESIAN_POINT('',(0.243328472457,-0.266092657395,0.947759848348)
);
#93 = CARTESIAN_POINT('',(0.192919727648,-0.307214245883,0.961627849016)
);
#94 = CARTESIAN_POINT('',(0.154036257597,-0.330575234684,0.97556884117)
);
#95 = CARTESIAN_POINT('',(0.111697539587,-0.34826744064,0.993504713671)
);
#96 = CARTESIAN_POINT('',(6.693688581144E-002,-0.359602387442,
1.014881968058));
#97 = CARTESIAN_POINT('',(2.110275582355E-002,-0.364121765719,
1.038969451841));
#98 = CARTESIAN_POINT('',(-2.42325371414E-002,-0.36188844377,
1.064917034451));
#99 = CARTESIAN_POINT('',(-6.76107063654E-002,-0.35359410683,
1.091803257066));
#100 = ORIENTED_EDGE('',*,*,#101,.T.);
#101 = EDGE_CURVE('',#77,#75,#102,.T.);
#102 = B_SPLINE_CURVE_WITH_KNOTS('',7,(#103,#104,#105,#106,#107,#108,
#109,#110,#111,#112,#113,#114,#115,#116,#117,#118,#119,#120,#121,
#122,#123,#124,#125,#126,#127,#128,#129,#130,#131,#132,#133,#134,
#135,#136,#137,#138,#139,#140),.UNSPECIFIED.,.F.,.F.,(8,6,6,6,6,6,8)
,(0.E+000,0.176161392831,0.411960921288,0.552208474169,0.680409233504,
0.808821484921,1.),.UNSPECIFIED.);
#103 = CARTESIAN_POINT('',(-6.76107063654E-002,-0.35359410683,
1.091803257066));
#104 = CARTESIAN_POINT('',(-0.109756635508,-0.345535386436,
1.117925724968));
#105 = CARTESIAN_POINT('',(-0.150118707635,-0.331742780531,
1.144973935367));
#106 = CARTESIAN_POINT('',(-0.187840211964,-0.312724081471,
1.172411933626));
#107 = CARTESIAN_POINT('',(-0.222250217697,-0.289105066162,
1.199841019746));
#108 = CARTESIAN_POINT('',(-0.252851124831,-0.261543468929,
1.226966741532));
#109 = CARTESIAN_POINT('',(-0.279280264224,-0.230677209454,
1.253558190462));
#110 = CARTESIAN_POINT('',(-0.330647013434,-0.152171554094,
1.313989428078));
#111 = CARTESIAN_POINT('',(-0.352006886593,-0.102458185591,
1.347183826726));
#112 = CARTESIAN_POINT('',(-0.364656376733,-4.945353920429E-002,
1.378460320425));
#113 = CARTESIAN_POINT('',(-0.368085432454,5.330126845716E-003,
1.407233381505));
#114 = CARTESIAN_POINT('',(-0.361953262483,6.025637457378E-002,
1.432726038515));
#115 = CARTESIAN_POINT('',(-0.346138360785,0.113533399154,1.453782444182
));
#116 = CARTESIAN_POINT('',(-0.305880990153,0.192701922373,1.477914564291
));
#117 = CARTESIAN_POINT('',(-0.28753879071,0.220927768094,1.484814451339)
);
#118 = CARTESIAN_POINT('',(-0.265941848007,0.247413297053,1.489298610499
));
#119 = CARTESIAN_POINT('',(-0.241240384185,0.271671478985,1.491012195189
));
#120 = CARTESIAN_POINT('',(-0.213713958963,0.293196193189,1.489603647102
));
#121 = CARTESIAN_POINT('',(-0.183794467656,0.311521089465,1.484811442472
));
#122 = CARTESIAN_POINT('',(-0.123050721633,0.339827568333,1.469084206593
));
#123 = CARTESIAN_POINT('',(-9.249403520106E-002,0.350404971064,
1.458703921882));
#124 = CARTESIAN_POINT('',(-6.08763428501E-002,0.35774796591,
1.445424005433));
#125 = CARTESIAN_POINT('',(-2.877319892519E-002,0.361698757816,
1.429384802286));
#126 = CARTESIAN_POINT('',(3.204905154291E-003,0.36226777274,
1.410939292292));
#127 = CARTESIAN_POINT('',(3.446534127717E-002,0.359643155921,
1.390626602803));
#128 = CARTESIAN_POINT('',(9.45543687362E-002,0.348702746137,
1.347491495186));
#129 = CARTESIAN_POINT('',(0.123487026881,0.340357816442,1.324587332183)
);
#130 = CARTESIAN_POINT('',(0.151037472836,0.329406923163,1.300770213546)
);
#131 = CARTESIAN_POINT('',(0.177036210885,0.316103494775,1.276416193543)
);
#132 = CARTESIAN_POINT('',(0.201363848053,0.300670364048,1.25184853522)
);
#133 = CARTESIAN_POINT('',(0.223926974289,0.283290527833,1.227335241308)
);
#134 = CARTESIAN_POINT('',(0.275467131296,0.235550388268,1.167036511853)
);
#135 = CARTESIAN_POINT('',(0.302152538485,0.203030935736,1.13164010426)
);
#136 = CARTESIAN_POINT('',(0.324378861405,0.167073329513,1.097713809842)
);
#137 = CARTESIAN_POINT('',(0.341753253633,0.128144041952,1.066000832845)
);
#138 = CARTESIAN_POINT('',(0.353793954112,8.679527400087E-002,
1.037253705247));
#139 = CARTESIAN_POINT('',(0.36,4.376006401602E-002,1.01221321057));
#140 = CARTESIAN_POINT('',(0.36,-1.110223024625E-016,0.991504158674));
#141 = TOROIDAL_SURFACE('',#142,5.701219512195,2.048780487805);
#142 = AXIS2_PLACEMENT_3D('',#143,#144,#145);
#143 = CARTESIAN_POINT('',(3.75,-0.798780487805,7.78));
#144 = DIRECTION('',(0.E+000,1.,0.E+000));
#145 = DIRECTION('',(1.,0.E+000,0.E+000));
#146 = ADVANCED_FACE('',(#147,#167),#234,.T.);
#147 = FACE_BOUND('',#148,.T.);
#148 = EDGE_LOOP('',(#149,#150,#159,#166));
#149 = ORIENTED_EDGE('',*,*,#31,.T.);
#150 = ORIENTED_EDGE('',*,*,#151,.T.);
#151 = EDGE_CURVE('',#24,#152,#154,.T.);
#152 = VERTEX_POINT('',#153);
#153 = CARTESIAN_POINT('',(9.451219512195,-2.95,7.78));
#154 = CIRCLE('',#155,2.048780487805);
#155 = AXIS2_PLACEMENT_3D('',#156,#157,#158);
#156 = CARTESIAN_POINT('',(9.451219512195,-0.901219512195,7.78));
#157 = DIRECTION('',(0.E+000,0.E+000,-1.));
#158 = DIRECTION('',(1.,0.E+000,0.E+000));
#159 = ORIENTED_EDGE('',*,*,#160,.F.);
#160 = EDGE_CURVE('',#152,#152,#161,.T.);
#161 = CIRCLE('',#162,5.701219512195);
#162 = AXIS2_PLACEMENT_3D('',#163,#164,#165);
#163 = CARTESIAN_POINT('',(3.75,-2.95,7.78));
#164 = DIRECTION('',(0.E+000,-1.,0.E+000));
#165 = DIRECTION('',(1.,0.E+000,0.E+000));
#166 = ORIENTED_EDGE('',*,*,#151,.F.);
#167 = FACE_BOUND('',#168,.T.);
#168 = EDGE_LOOP('',(#169,#199));
#169 = ORIENTED_EDGE('',*,*,#170,.T.);
#170 = EDGE_CURVE('',#171,#173,#175,.T.);
#171 = VERTEX_POINT('',#172);
#172 = CARTESIAN_POINT('',(7.86,-1.7,1.401624361351));
#173 = VERTEX_POINT('',#174);
#174 = CARTESIAN_POINT('',(7.197735333497,-1.504459540289,0.940691947633
));
#175 = B_SPLINE_CURVE_WITH_KNOTS('',8,(#176,#177,#178,#179,#180,#181,
#182,#183,#184,#185,#186,#187,#188,#189,#190,#191,#192,#193,#194,
#195,#196,#197,#198),.UNSPECIFIED.,.F.,.F.,(9,7,7,9),(0.E+000,
0.234849589383,0.727435305949,1.),.UNSPECIFIED.);
#176 = CARTESIAN_POINT('',(7.86,-1.7,1.401624361351));
#177 = CARTESIAN_POINT('',(7.86,-1.674010998805,1.388534491733));
#178 = CARTESIAN_POINT('',(7.857855713356,-1.648119126761,1.374694821482
));
#179 = CARTESIAN_POINT('',(7.853595401715,-1.622498849848,1.360200331767
));
#180 = CARTESIAN_POINT('',(7.847255929538,-1.597320082697,1.345133054502
));
#181 = CARTESIAN_POINT('',(7.838883118886,-1.572749009639,1.329564944878
));
#182 = CARTESIAN_POINT('',(7.8285321042,-1.54894890575,1.313560753903));
#183 = CARTESIAN_POINT('',(7.816267687087,-1.526080957896,1.297180900931
));
#184 = CARTESIAN_POINT('',(7.772584335436,-1.458631241531,1.245464125825
));
#185 = CARTESIAN_POINT('',(7.735037888998,-1.41795017282,1.209195363823)
);
#186 = CARTESIAN_POINT('',(7.690147352711,-1.383376875353,1.172020921025
));
#187 = CARTESIAN_POINT('',(7.638604593882,-1.356399205005,1.134406156706
));
#188 = CARTESIAN_POINT('',(7.581685707909,-1.338778631092,1.097170265056
));
#189 = CARTESIAN_POINT('',(7.521530932502,-1.332125021242,1.061560210079
));
#190 = CARTESIAN_POINT('',(7.461169685593,-1.337170228757,1.029466047284
));
#191 = CARTESIAN_POINT('',(7.371948953373,-1.361930693205,0.987727757839
));
#192 = CARTESIAN_POINT('',(7.341126311599,-1.374068868368,0.974489634253
));
#193 = CARTESIAN_POINT('',(7.311691822762,-1.389391618241,0.963114632285
));
#194 = CARTESIAN_POINT('',(7.284046887666,-1.407693253096,0.953823229938
));
#195 = CARTESIAN_POINT('',(7.258552916153,-1.428702170698,0.946810129513
));
#196 = CARTESIAN_POINT('',(7.235518911914,-1.452089310373,0.942229925173
));
#197 = CARTESIAN_POINT('',(7.21518977664,-1.477478620619,0.940181613584)
);
#198 = CARTESIAN_POINT('',(7.197735333497,-1.504459540289,0.940691947633
));
#199 = ORIENTED_EDGE('',*,*,#200,.T.);
#200 = EDGE_CURVE('',#173,#171,#201,.T.);
#201 = B_SPLINE_CURVE_WITH_KNOTS('',6,(#202,#203,#204,#205,#206,#207,
#208,#209,#210,#211,#212,#213,#214,#215,#216,#217,#218,#219,#220,
#221,#222,#223,#224,#225,#226,#227,#228,#229,#230,#231,#232,#233),
.UNSPECIFIED.,.F.,.F.,(7,5,5,5,5,5,7),(0.E+000,0.210761996152,
0.386735994156,0.548359609133,0.700987792621,0.855960350469,1.),
.UNSPECIFIED.);
#202 = CARTESIAN_POINT('',(7.197735333497,-1.504459540289,0.940691947633
));
#203 = CARTESIAN_POINT('',(7.17128812582,-1.545341393693,0.941465212668)
);
#204 = CARTESIAN_POINT('',(7.151759150373,-1.590077550168,0.948406403819
));
#205 = CARTESIAN_POINT('',(7.139902230694,-1.636922168005,0.9616401103)
);
#206 = CARTESIAN_POINT('',(7.135640978896,-1.684070532275,0.980660672912
));
#207 = CARTESIAN_POINT('',(7.138454430199,-1.730181643352,1.004598424734
));
#208 = CARTESIAN_POINT('',(7.155484462746,-1.811002326843,1.05579542851)
);
#209 = CARTESIAN_POINT('',(7.167745315955,-1.846354535298,1.081864384434
));
#210 = CARTESIAN_POINT('',(7.184179374437,-1.879730990863,1.110182939273
));
#211 = CARTESIAN_POINT('',(7.20443221465,-1.910710954783,1.140190367319)
);
#212 = CARTESIAN_POINT('',(7.228211498523,-1.938940820077,1.171331189798
));
#213 = CARTESIAN_POINT('',(7.280131724992,-1.987065519855,1.232091980268
));
#214 = CARTESIAN_POINT('',(7.307736031442,-2.007431315958,1.261602357789
));
#215 = CARTESIAN_POINT('',(7.337919589793,-2.024851975647,1.29109787951)
);
#216 = CARTESIAN_POINT('',(7.370503949523,-2.038950604896,1.320042651953
));
#217 = CARTESIAN_POINT('',(7.40520590653,-2.049241228097,1.347724298837)
);
#218 = CARTESIAN_POINT('',(7.475836842618,-2.06086677137,1.397568563695)
);
#219 = CARTESIAN_POINT('',(7.511706679019,-2.062687599507,1.420035058524
));
#220 = CARTESIAN_POINT('',(7.548270375865,-2.060132949529,1.439743297111
));
#221 = CARTESIAN_POINT('',(7.584522475763,-2.053013517306,1.45589548762)
);
#222 = CARTESIAN_POINT('',(7.619496483688,-2.041527809036,1.468193612939
));
#223 = CARTESIAN_POINT('',(7.685847996454,-2.010519014458,1.4853127024)
);
#224 = CARTESIAN_POINT('',(7.717200768761,-1.990857099397,1.490026254886
));
#225 = CARTESIAN_POINT('',(7.745730371003,-1.967590921353,1.490880936781
));
#226 = CARTESIAN_POINT('',(7.770915206922,-1.94135910722,1.488272425948)
);
#227 = CARTESIAN_POINT('',(7.792480401759,-1.912812148668,1.482667512093
));
#228 = CARTESIAN_POINT('',(7.826844420597,-1.854397471214,1.466885767415
));
#229 = CARTESIAN_POINT('',(7.840154552906,-1.824764894741,1.457059419838
));
#230 = CARTESIAN_POINT('',(7.850120798201,-1.794097601636,1.44534574171)
);
#231 = CARTESIAN_POINT('',(7.856725625654,-1.762826858021,1.432048769848
));
#232 = CARTESIAN_POINT('',(7.86,-1.731341873811,1.417410310135));
#233 = CARTESIAN_POINT('',(7.86,-1.7,1.401624361351));
#234 = TOROIDAL_SURFACE('',#235,5.701219512195,2.048780487805);
#235 = AXIS2_PLACEMENT_3D('',#236,#237,#238);
#236 = CARTESIAN_POINT('',(3.75,-0.901219512195,7.78));
#237 = DIRECTION('',(0.E+000,-1.,0.E+000));
#238 = DIRECTION('',(1.,0.E+000,0.E+000));
#239 = ADVANCED_FACE('',(#240),#243,.F.);
#240 = FACE_BOUND('',#241,.F.);
#241 = EDGE_LOOP('',(#242));
#242 = ORIENTED_EDGE('',*,*,#64,.T.);
#243 = PLANE('',#244);
#244 = AXIS2_PLACEMENT_3D('',#245,#246,#247);
#245 = CARTESIAN_POINT('',(3.75,1.25,7.78));
#246 = DIRECTION('',(-0.E+000,-1.,-0.E+000));
#247 = DIRECTION('',(0.E+000,0.E+000,-1.));
#248 = ADVANCED_FACE('',(#249),#269,.T.);
#249 = FACE_BOUND('',#250,.T.);
#250 = EDGE_LOOP('',(#251,#252,#260,#267,#268));
#251 = ORIENTED_EDGE('',*,*,#101,.T.);
#252 = ORIENTED_EDGE('',*,*,#253,.T.);
#253 = EDGE_CURVE('',#75,#254,#256,.T.);
#254 = VERTEX_POINT('',#255);
#255 = CARTESIAN_POINT('',(0.36,0.E+000,-2.856));
#256 = LINE('',#257,#258);
#257 = CARTESIAN_POINT('',(0.36,0.E+000,7.78));
#258 = VECTOR('',#259,1.);
#259 = DIRECTION('',(-0.E+000,-0.E+000,-1.));
#260 = ORIENTED_EDGE('',*,*,#261,.T.);
#261 = EDGE_CURVE('',#254,#254,#262,.T.);
#262 = CIRCLE('',#263,0.36);
#263 = AXIS2_PLACEMENT_3D('',#264,#265,#266);
#264 = CARTESIAN_POINT('',(0.E+000,0.E+000,-2.856));
#265 = DIRECTION('',(0.E+000,0.E+000,1.));
#266 = DIRECTION('',(1.,0.E+000,0.E+000));
#267 = ORIENTED_EDGE('',*,*,#253,.F.);
#268 = ORIENTED_EDGE('',*,*,#74,.T.);
#269 = CYLINDRICAL_SURFACE('',#270,0.36);
#270 = AXIS2_PLACEMENT_3D('',#271,#272,#273);
#271 = CARTESIAN_POINT('',(0.E+000,0.E+000,7.78));
#272 = DIRECTION('',(0.E+000,0.E+000,1.));
#273 = DIRECTION('',(1.,0.E+000,0.E+000));
#274 = ADVANCED_FACE('',(#275),#278,.T.);
#275 = FACE_BOUND('',#276,.T.);
#276 = EDGE_LOOP('',(#277));
#277 = ORIENTED_EDGE('',*,*,#160,.T.);
#278 = PLANE('',#279);
#279 = AXIS2_PLACEMENT_3D('',#280,#281,#282);
#280 = CARTESIAN_POINT('',(3.75,-2.95,7.78));
#281 = DIRECTION('',(-0.E+000,-1.,-0.E+000));
#282 = DIRECTION('',(0.E+000,0.E+000,-1.));
#283 = ADVANCED_FACE('',(#284),#304,.T.);
#284 = FACE_BOUND('',#285,.T.);
#285 = EDGE_LOOP('',(#286,#287,#295,#302,#303));
#286 = ORIENTED_EDGE('',*,*,#170,.F.);
#287 = ORIENTED_EDGE('',*,*,#288,.T.);
#288 = EDGE_CURVE('',#171,#289,#291,.T.);
#289 = VERTEX_POINT('',#290);
#290 = CARTESIAN_POINT('',(7.86,-1.7,-2.856));
#291 = LINE('',#292,#293);
#292 = CARTESIAN_POINT('',(7.86,-1.7,7.78));
#293 = VECTOR('',#294,1.);
#294 = DIRECTION('',(-0.E+000,-0.E+000,-1.));
#295 = ORIENTED_EDGE('',*,*,#296,.T.);
#296 = EDGE_CURVE('',#289,#289,#297,.T.);
#297 = CIRCLE('',#298,0.36);
#298 = AXIS2_PLACEMENT_3D('',#299,#300,#301);
#299 = CARTESIAN_POINT('',(7.5,-1.7,-2.856));
#300 = DIRECTION('',(0.E+000,0.E+000,1.));
#301 = DIRECTION('',(1.,0.E+000,0.E+000));
#302 = ORIENTED_EDGE('',*,*,#288,.F.);
#303 = ORIENTED_EDGE('',*,*,#200,.F.);
#304 = CYLINDRICAL_SURFACE('',#305,0.36);
#305 = AXIS2_PLACEMENT_3D('',#306,#307,#308);
#306 = CARTESIAN_POINT('',(7.5,-1.7,7.78));
#307 = DIRECTION('',(0.E+000,0.E+000,1.));
#308 = DIRECTION('',(1.,0.E+000,0.E+000));
#309 = ADVANCED_FACE('',(#310),#330,.T.);
#310 = FACE_BOUND('',#311,.F.);
#311 = EDGE_LOOP('',(#312,#321,#322,#323));
#312 = ORIENTED_EDGE('',*,*,#313,.F.);
#313 = EDGE_CURVE('',#254,#314,#316,.T.);
#314 = VERTEX_POINT('',#315);
#315 = CARTESIAN_POINT('',(0.216,0.E+000,-3.));
#316 = CIRCLE('',#317,0.144);
#317 = AXIS2_PLACEMENT_3D('',#318,#319,#320);
#318 = CARTESIAN_POINT('',(0.216,0.E+000,-2.856));
#319 = DIRECTION('',(-0.E+000,1.,0.E+000));
#320 = DIRECTION('',(1.,0.E+000,0.E+000));
#321 = ORIENTED_EDGE('',*,*,#261,.T.);
#322 = ORIENTED_EDGE('',*,*,#313,.T.);
#323 = ORIENTED_EDGE('',*,*,#324,.F.);
#324 = EDGE_CURVE('',#314,#314,#325,.T.);
#325 = CIRCLE('',#326,0.216);
#326 = AXIS2_PLACEMENT_3D('',#327,#328,#329);
#327 = CARTESIAN_POINT('',(0.E+000,0.E+000,-3.));
#328 = DIRECTION('',(0.E+000,0.E+000,1.));
#329 = DIRECTION('',(1.,0.E+000,0.E+000));
#330 = TOROIDAL_SURFACE('',#331,0.216,0.144);
#331 = AXIS2_PLACEMENT_3D('',#332,#333,#334);
#332 = CARTESIAN_POINT('',(0.E+000,0.E+000,-2.856));
#333 = DIRECTION('',(-0.E+000,-0.E+000,-1.));
#334 = DIRECTION('',(1.,0.E+000,0.E+000));
#335 = ADVANCED_FACE('',(#336),#356,.T.);
#336 = FACE_BOUND('',#337,.F.);
#337 = EDGE_LOOP('',(#338,#347,#348,#349));
#338 = ORIENTED_EDGE('',*,*,#339,.F.);
#339 = EDGE_CURVE('',#289,#340,#342,.T.);
#340 = VERTEX_POINT('',#341);
#341 = CARTESIAN_POINT('',(7.716,-1.7,-3.));
#342 = CIRCLE('',#343,0.144);
#343 = AXIS2_PLACEMENT_3D('',#344,#345,#346);
#344 = CARTESIAN_POINT('',(7.716,-1.7,-2.856));
#345 = DIRECTION('',(-0.E+000,1.,0.E+000));
#346 = DIRECTION('',(1.,0.E+000,0.E+000));
#347 = ORIENTED_EDGE('',*,*,#296,.T.);
#348 = ORIENTED_EDGE('',*,*,#339,.T.);
#349 = ORIENTED_EDGE('',*,*,#350,.F.);
#350 = EDGE_CURVE('',#340,#340,#351,.T.);
#351 = CIRCLE('',#352,0.216);
#352 = AXIS2_PLACEMENT_3D('',#353,#354,#355);
#353 = CARTESIAN_POINT('',(7.5,-1.7,-3.));
#354 = DIRECTION('',(0.E+000,0.E+000,1.));
#355 = DIRECTION('',(1.,0.E+000,0.E+000));
#356 = TOROIDAL_SURFACE('',#357,0.216,0.144);
#357 = AXIS2_PLACEMENT_3D('',#358,#359,#360);
#358 = CARTESIAN_POINT('',(7.5,-1.7,-2.856));
#359 = DIRECTION('',(-0.E+000,-0.E+000,-1.));
#360 = DIRECTION('',(1.,0.E+000,0.E+000));
#361 = ADVANCED_FACE('',(#362),#365,.F.);
#362 = FACE_BOUND('',#363,.F.);
#363 = EDGE_LOOP('',(#364));
#364 = ORIENTED_EDGE('',*,*,#324,.T.);
#365 = PLANE('',#366);
#366 = AXIS2_PLACEMENT_3D('',#367,#368,#369);
#367 = CARTESIAN_POINT('',(-1.483767504926E-017,1.497958850874E-017,-3.)
);
#368 = DIRECTION('',(0.E+000,0.E+000,1.));
#369 = DIRECTION('',(1.,0.E+000,0.E+000));
#370 = ADVANCED_FACE('',(#371),#374,.F.);
#371 = FACE_BOUND('',#372,.F.);
#372 = EDGE_LOOP('',(#373));
#373 = ORIENTED_EDGE('',*,*,#350,.T.);
#374 = PLANE('',#375);
#375 = AXIS2_PLACEMENT_3D('',#376,#377,#378);
#376 = CARTESIAN_POINT('',(7.5,-1.7,-3.));
#377 = DIRECTION('',(0.E+000,0.E+000,1.));
#378 = DIRECTION('',(1.,0.E+000,0.E+000));
#379 = ( GEOMETRIC_REPRESENTATION_CONTEXT(3)
GLOBAL_UNCERTAINTY_ASSIGNED_CONTEXT((#383)) GLOBAL_UNIT_ASSIGNED_CONTEXT
((#380,#381,#382)) REPRESENTATION_CONTEXT('Context #1',
'3D Context with UNIT and UNCERTAINTY') );
#380 = ( LENGTH_UNIT() NAMED_UNIT(*) SI_UNIT(.MILLI.,.METRE.) );
#381 = ( NAMED_UNIT(*) PLANE_ANGLE_UNIT() SI_UNIT($,.RADIAN.) );
#382 = ( NAMED_UNIT(*) SI_UNIT($,.STERADIAN.) SOLID_ANGLE_UNIT() );
#383 = UNCERTAINTY_MEASURE_WITH_UNIT(LENGTH_MEASURE(1.E-007),#380,
'distance_accuracy_value','confusion accuracy');
#384 = PRODUCT_RELATED_PRODUCT_CATEGORY('part',$,(#7));
#385 = MECHANICAL_DESIGN_GEOMETRIC_PRESENTATION_REPRESENTATION('',(#386,
#394,#401,#408,#415,#423,#430,#437,#444,#451,#458),#379);
#386 = STYLED_ITEM('color',(#387),#17);
#387 = PRESENTATION_STYLE_ASSIGNMENT((#388));
#388 = SURFACE_STYLE_USAGE(.BOTH.,#389);
#389 = SURFACE_SIDE_STYLE('',(#390));
#390 = SURFACE_STYLE_FILL_AREA(#391);
#391 = FILL_AREA_STYLE('',(#392));
#392 = FILL_AREA_STYLE_COLOUR('',#393);
#393 = COLOUR_RGB('',0.136999994516,0.402000010014,0.726999998093);
#394 = STYLED_ITEM('color',(#395),#50);
#395 = PRESENTATION_STYLE_ASSIGNMENT((#396));
#396 = SURFACE_STYLE_USAGE(.BOTH.,#397);
#397 = SURFACE_SIDE_STYLE('',(#398));
#398 = SURFACE_STYLE_FILL_AREA(#399);
#399 = FILL_AREA_STYLE('',(#400));
#400 = FILL_AREA_STYLE_COLOUR('',#393);
#401 = STYLED_ITEM('color',(#402),#146);
#402 = PRESENTATION_STYLE_ASSIGNMENT((#403));
#403 = SURFACE_STYLE_USAGE(.BOTH.,#404);
#404 = SURFACE_SIDE_STYLE('',(#405));
#405 = SURFACE_STYLE_FILL_AREA(#406);
#406 = FILL_AREA_STYLE('',(#407));
#407 = FILL_AREA_STYLE_COLOUR('',#393);
#408 = STYLED_ITEM('color',(#409),#239);
#409 = PRESENTATION_STYLE_ASSIGNMENT((#410));
#410 = SURFACE_STYLE_USAGE(.BOTH.,#411);
#411 = SURFACE_SIDE_STYLE('',(#412));
#412 = SURFACE_STYLE_FILL_AREA(#413);
#413 = FILL_AREA_STYLE('',(#414));
#414 = FILL_AREA_STYLE_COLOUR('',#393);
#415 = STYLED_ITEM('color',(#416),#248);
#416 = PRESENTATION_STYLE_ASSIGNMENT((#417));
#417 = SURFACE_STYLE_USAGE(.BOTH.,#418);
#418 = SURFACE_SIDE_STYLE('',(#419));
#419 = SURFACE_STYLE_FILL_AREA(#420);
#420 = FILL_AREA_STYLE('',(#421));
#421 = FILL_AREA_STYLE_COLOUR('',#422);
#422 = COLOUR_RGB('',0.824000000954,0.819999992847,0.78100001812);
#423 = STYLED_ITEM('color',(#424),#274);
#424 = PRESENTATION_STYLE_ASSIGNMENT((#425));
#425 = SURFACE_STYLE_USAGE(.BOTH.,#426);
#426 = SURFACE_SIDE_STYLE('',(#427));
#427 = SURFACE_STYLE_FILL_AREA(#428);
#428 = FILL_AREA_STYLE('',(#429));
#429 = FILL_AREA_STYLE_COLOUR('',#393);
#430 = STYLED_ITEM('color',(#431),#283);
#431 = PRESENTATION_STYLE_ASSIGNMENT((#432));
#432 = SURFACE_STYLE_USAGE(.BOTH.,#433);
#433 = SURFACE_SIDE_STYLE('',(#434));
#434 = SURFACE_STYLE_FILL_AREA(#435);
#435 = FILL_AREA_STYLE('',(#436));
#436 = FILL_AREA_STYLE_COLOUR('',#422);
#437 = STYLED_ITEM('color',(#438),#309);
#438 = PRESENTATION_STYLE_ASSIGNMENT((#439));
#439 = SURFACE_STYLE_USAGE(.BOTH.,#440);
#440 = SURFACE_SIDE_STYLE('',(#441));
#441 = SURFACE_STYLE_FILL_AREA(#442);
#442 = FILL_AREA_STYLE('',(#443));
#443 = FILL_AREA_STYLE_COLOUR('',#422);
#444 = STYLED_ITEM('color',(#445),#335);
#445 = PRESENTATION_STYLE_ASSIGNMENT((#446));
#446 = SURFACE_STYLE_USAGE(.BOTH.,#447);
#447 = SURFACE_SIDE_STYLE('',(#448));
#448 = SURFACE_STYLE_FILL_AREA(#449);
#449 = FILL_AREA_STYLE('',(#450));
#450 = FILL_AREA_STYLE_COLOUR('',#422);
#451 = STYLED_ITEM('color',(#452),#361);
#452 = PRESENTATION_STYLE_ASSIGNMENT((#453));
#453 = SURFACE_STYLE_USAGE(.BOTH.,#454);
#454 = SURFACE_SIDE_STYLE('',(#455));
#455 = SURFACE_STYLE_FILL_AREA(#456);
#456 = FILL_AREA_STYLE('',(#457));
#457 = FILL_AREA_STYLE_COLOUR('',#422);
#458 = STYLED_ITEM('color',(#459),#370);
#459 = PRESENTATION_STYLE_ASSIGNMENT((#460));
#460 = SURFACE_STYLE_USAGE(.BOTH.,#461);
#461 = SURFACE_SIDE_STYLE('',(#462));
#462 = SURFACE_STYLE_FILL_AREA(#463);
#463 = FILL_AREA_STYLE('',(#464));
#464 = FILL_AREA_STYLE_COLOUR('',#422);
ENDSEC;
END-ISO-10303-21;
