ISO-10303-21;
HEADER;
/* RV_Disc_D12mm_W4.7mm_P7.5mm.step 3D STEP model for use in ECAD systems
 * Copyright (C) 2018, kicad StepUp
 * 
 * This work is licensed under the [Creative Commons CC-BY-SA 4.0 License](https://creativecommons.org/licenses/by-sa/4.0/legalcode), 
 * with the following exception:
 * To the extent that the creation of electronic designs that use 'Licensed Material' can be considered to be 'Adapted Material', 
 * then the copyright holder waives article 3 of the license with respect to these designs and any generated files which use data provided 
 * as part of the 'Licensed Material'.
 * You are free to use the library data in your own projects without the obligation to share your project files under this or any other license agreement.
 * However, if you wish to redistribute these libraries, or parts thereof (including in modified form) as a collection then the exception above does not apply. 
 * Please refer to https://github.com/KiCad/kicad-packages3D/blob/master/LICENSE.md for further clarification of the exception.
 * Disclaimer of Warranties and Limitation of Liability.
 * These libraries are provided in the hope that they will be useful, but are provided without warranty of any kind, express or implied.
 * *USE 3D CAD DATA AT YOUR OWN RISK*
 * *DO NOT RELY UPON ANY INFORMATION FOUND HERE WITHOUT INDEPENDENT VERIFICATION.*
 * 
 */

FILE_DESCRIPTION(
/* description */ ('model of RV_Disc_D12mm_W4.7mm_P7.5mm'),
/* implementation_level */ '2;1');

FILE_NAME(
/* name */ 'RV_Disc_D12mm_W4.7mm_P7.5mm.step',
/* time_stamp */ '2018-11-11T20:34:29',
/* author */ ('kicad StepUp','ksu'),
/* organization */ ('FreeCAD'),
/* preprocessor_version */ 'OCC',
/* originating_system */ 'kicad StepUp',
/* authorisation */ '');

FILE_SCHEMA(('AUTOMOTIVE_DESIGN { 1 0 10303 214 1 1 1 1 }'));
ENDSEC;

DATA;
#1 = APPLICATION_PROTOCOL_DEFINITION('international standard',
'automotive_design',2000,#2);
#2 = APPLICATION_CONTEXT(
'core data for automotive mechanical design processes');
#3 = SHAPE_DEFINITION_REPRESENTATION(#4,#10);
#4 = PRODUCT_DEFINITION_SHAPE('','',#5);
#5 = PRODUCT_DEFINITION('design','',#6,#9);
#6 = PRODUCT_DEFINITION_FORMATION('','',#7);
#7 = PRODUCT('RV_Disc_D12mm_W47mm_P75mm','RV_Disc_D12mm_W47mm_P75mm','',
(#8));
#8 = PRODUCT_CONTEXT('',#2,'mechanical');
#9 = PRODUCT_DEFINITION_CONTEXT('part definition',#2,'design');
#10 = ADVANCED_BREP_SHAPE_REPRESENTATION('',(#11,#15),#402);
#11 = AXIS2_PLACEMENT_3D('',#12,#13,#14);
#12 = CARTESIAN_POINT('',(0.E+000,0.E+000,0.E+000));
#13 = DIRECTION('',(0.E+000,0.E+000,1.));
#14 = DIRECTION('',(1.,0.E+000,-0.E+000));
#15 = MANIFOLD_SOLID_BREP('',#16);
#16 = CLOSED_SHELL('',(#17,#50,#156,#262,#271,#297,#306,#332,#358,#384,
#393));
#17 = ADVANCED_FACE('',(#18),#45,.T.);
#18 = FACE_BOUND('',#19,.F.);
#19 = EDGE_LOOP('',(#20,#30,#37,#38));
#20 = ORIENTED_EDGE('',*,*,#21,.T.);
#21 = EDGE_CURVE('',#22,#24,#26,.T.);
#22 = VERTEX_POINT('',#23);
#23 = CARTESIAN_POINT('',(9.75,-0.942682926829,6.03));
#24 = VERTEX_POINT('',#25);
#25 = CARTESIAN_POINT('',(9.75,-1.057317073171,6.03));
#26 = LINE('',#27,#28);
#27 = CARTESIAN_POINT('',(9.75,1.35,6.03));
#28 = VECTOR('',#29,1.);
#29 = DIRECTION('',(0.E+000,-1.,0.E+000));
#30 = ORIENTED_EDGE('',*,*,#31,.T.);
#31 = EDGE_CURVE('',#24,#24,#32,.T.);
#32 = CIRCLE('',#33,6.);
#33 = AXIS2_PLACEMENT_3D('',#34,#35,#36);
#34 = CARTESIAN_POINT('',(3.75,-1.057317073171,6.03));
#35 = DIRECTION('',(0.E+000,-1.,0.E+000));
#36 = DIRECTION('',(1.,0.E+000,0.E+000));
#37 = ORIENTED_EDGE('',*,*,#21,.F.);
#38 = ORIENTED_EDGE('',*,*,#39,.F.);
#39 = EDGE_CURVE('',#22,#22,#40,.T.);
#40 = CIRCLE('',#41,6.);
#41 = AXIS2_PLACEMENT_3D('',#42,#43,#44);
#42 = CARTESIAN_POINT('',(3.75,-0.942682926829,6.03));
#43 = DIRECTION('',(0.E+000,-1.,0.E+000));
#44 = DIRECTION('',(1.,0.E+000,0.E+000));
#45 = CYLINDRICAL_SURFACE('',#46,6.);
#46 = AXIS2_PLACEMENT_3D('',#47,#48,#49);
#47 = CARTESIAN_POINT('',(3.75,1.35,6.03));
#48 = DIRECTION('',(0.E+000,1.,0.E+000));
#49 = DIRECTION('',(1.,0.E+000,0.E+000));
#50 = ADVANCED_FACE('',(#51,#71),#151,.T.);
#51 = FACE_BOUND('',#52,.F.);
#52 = EDGE_LOOP('',(#53,#54,#63,#70));
#53 = ORIENTED_EDGE('',*,*,#39,.T.);
#54 = ORIENTED_EDGE('',*,*,#55,.T.);
#55 = EDGE_CURVE('',#22,#56,#58,.T.);
#56 = VERTEX_POINT('',#57);
#57 = CARTESIAN_POINT('',(7.457317073171,1.35,6.03));
#58 = CIRCLE('',#59,2.292682926829);
#59 = AXIS2_PLACEMENT_3D('',#60,#61,#62);
#60 = CARTESIAN_POINT('',(7.457317073171,-0.942682926829,6.03));
#61 = DIRECTION('',(0.E+000,0.E+000,1.));
#62 = DIRECTION('',(1.,0.E+000,0.E+000));
#63 = ORIENTED_EDGE('',*,*,#64,.F.);
#64 = EDGE_CURVE('',#56,#56,#65,.T.);
#65 = CIRCLE('',#66,3.707317073171);
#66 = AXIS2_PLACEMENT_3D('',#67,#68,#69);
#67 = CARTESIAN_POINT('',(3.75,1.35,6.03));
#68 = DIRECTION('',(0.E+000,-1.,0.E+000));
#69 = DIRECTION('',(1.,0.E+000,0.E+000));
#70 = ORIENTED_EDGE('',*,*,#55,.F.);
#71 = FACE_BOUND('',#72,.F.);
#72 = EDGE_LOOP('',(#73,#110));
#73 = ORIENTED_EDGE('',*,*,#74,.T.);
#74 = EDGE_CURVE('',#75,#77,#79,.T.);
#75 = VERTEX_POINT('',#76);
#76 = CARTESIAN_POINT('',(0.36,0.E+000,1.327256388256));
#77 = VERTEX_POINT('',#78);
#78 = CARTESIAN_POINT('',(-0.314090728575,-0.175917634771,1.797227803809
));
#79 = B_SPLINE_CURVE_WITH_KNOTS('',8,(#80,#81,#82,#83,#84,#85,#86,#87,
#88,#89,#90,#91,#92,#93,#94,#95,#96,#97,#98,#99,#100,#101,#102,#103,
#104,#105,#106,#107,#108,#109),.UNSPECIFIED.,.F.,.F.,(9,7,7,7,9),(
0.E+000,0.175048264517,0.353995873469,0.804624296824,1.),
.UNSPECIFIED.);
#80 = CARTESIAN_POINT('',(0.36,-1.665334536938E-016,1.327256388256));
#81 = CARTESIAN_POINT('',(0.36,-2.045245389448E-002,1.315883995488));
#82 = CARTESIAN_POINT('',(0.358672028382,-4.112749110308E-002,
1.30569522354));
#83 = CARTESIAN_POINT('',(0.355965623343,-6.192136398674E-002,
1.296780956547));
#84 = CARTESIAN_POINT('',(0.351839515639,-8.271546129782E-002,
1.289227235417));
#85 = CARTESIAN_POINT('',(0.346267309057,-0.10337653904,1.283109918555)
);
#86 = CARTESIAN_POINT('',(0.33924291715,-0.123759153874,1.278489180978)
);
#87 = CARTESIAN_POINT('',(0.330785756248,-0.143710299067,1.2754038518));
#88 = CARTESIAN_POINT('',(0.310886437748,-0.182873579283,1.272293062366)
);
#89 = CARTESIAN_POINT('',(0.299378815477,-0.202065571314,1.272336801012)
);
#90 = CARTESIAN_POINT('',(0.286475485445,-0.220485012992,1.274011432303)
);
#91 = CARTESIAN_POINT('',(0.272255941162,-0.237978410826,1.277299730162)
);
#92 = CARTESIAN_POINT('',(0.256821751924,-0.254410045162,1.28215744448)
);
#93 = CARTESIAN_POINT('',(0.240291760888,-0.26966471989,1.288518152801)
);
#94 = CARTESIAN_POINT('',(0.222797241448,-0.283649200639,1.296298135361)
);
#95 = CARTESIAN_POINT('',(0.15834274836,-0.328130479116,1.328324925962)
);
#96 = CARTESIAN_POINT('',(0.106898795669,-0.351513569318,1.359675658461)
);
#97 = CARTESIAN_POINT('',(5.235947911737E-002,-0.365239954023,
1.397951324283));
#98 = CARTESIAN_POINT('',(-2.889715726698E-003,-0.36914209921,
1.441185193948));
#99 = CARTESIAN_POINT('',(-5.68358309272E-002,-0.363756796161,
1.487640307851));
#100 = CARTESIAN_POINT('',(-0.107895187915,-0.349980913606,
1.535866250025));
#101 = CARTESIAN_POINT('',(-0.154920797972,-0.328836069522,
1.584729723906));
#102 = CARTESIAN_POINT('',(-0.215310402091,-0.289340095936,
1.654409890087));
#103 = CARTESIAN_POINT('',(-0.232666163995,-0.276182482377,
1.675450193184));
#104 = CARTESIAN_POINT('',(-0.249043795581,-0.261885998702,
1.696387308017));
#105 = CARTESIAN_POINT('',(-0.264378045057,-0.246524337983,
1.717154872524));
#106 = CARTESIAN_POINT('',(-0.278607421816,-0.230171513052,
1.737688198163));
#107 = CARTESIAN_POINT('',(-0.291673382197,-0.212902173504,
1.757922691082));
#108 = CARTESIAN_POINT('',(-0.303519515265,-0.194791922699,
1.777792273288));
#109 = CARTESIAN_POINT('',(-0.314090728575,-0.175917634771,
1.797227803809));
#110 = ORIENTED_EDGE('',*,*,#111,.T.);
#111 = EDGE_CURVE('',#77,#75,#112,.T.);
#112 = B_SPLINE_CURVE_WITH_KNOTS('',7,(#113,#114,#115,#116,#117,#118,
#119,#120,#121,#122,#123,#124,#125,#126,#127,#128,#129,#130,#131,
#132,#133,#134,#135,#136,#137,#138,#139,#140,#141,#142,#143,#144,
#145,#146,#147,#148,#149,#150),.UNSPECIFIED.,.F.,.F.,(8,6,6,6,6,6,8)
,(0.E+000,0.192664586982,0.256193920912,0.366612740605,0.526327758638,
0.725003238815,1.),.UNSPECIFIED.);
#113 = CARTESIAN_POINT('',(-0.314090728575,-0.175917634771,
1.797227803809));
#114 = CARTESIAN_POINT('',(-0.331160442448,-0.145440651188,
1.828611045755));
#115 = CARTESIAN_POINT('',(-0.344829233554,-0.112943512251,
1.858825262258));
#116 = CARTESIAN_POINT('',(-0.354861354996,-7.876282277937E-002,
1.88757338588));
#117 = CARTESIAN_POINT('',(-0.361007918027,-4.326781745905E-002,
1.91450426961));
#118 = CARTESIAN_POINT('',(-0.363020734377,-6.889271172841E-003,
1.939187711524));
#119 = CARTESIAN_POINT('',(-0.3606786736,2.986150805411E-002,
1.961103568777));
#120 = CARTESIAN_POINT('',(-0.351567107394,7.842642067279E-002,
1.985758810461));
#121 = CARTESIAN_POINT('',(-0.348817733379,9.044208954479E-002,
1.991504609391));
#122 = CARTESIAN_POINT('',(-0.345573406248,0.102408008177,1.996860379496
));
#123 = CARTESIAN_POINT('',(-0.34183033707,0.114299630765,2.001802850358)
);
#124 = CARTESIAN_POINT('',(-0.33758648881,0.12609067118,2.006308032072)
);
#125 = CARTESIAN_POINT('',(-0.332842109982,0.137753306521,2.010351787952
));
#126 = CARTESIAN_POINT('',(-0.318489548376,0.16925507555,2.020095558483)
);
#127 = CARTESIAN_POINT('',(-0.307874344373,0.188779502971,2.024816309157
));
#128 = CARTESIAN_POINT('',(-0.295772766056,0.207672225544,2.027945756767
));
#129 = CARTESIAN_POINT('',(-0.282230681981,0.225764285321,2.029364524407
));
#130 = CARTESIAN_POINT('',(-0.267329785203,0.242885165586,2.028975241483
));
#131 = CARTESIAN_POINT('',(-0.251191508178,0.258874305574,2.026719464262
));
#132 = CARTESIAN_POINT('',(-0.209076597433,0.294890568383,2.016634160784
));
#133 = CARTESIAN_POINT('',(-0.181908468476,0.313547265589,2.006762297163
));
#134 = CARTESIAN_POINT('',(-0.152964575911,0.329139193895,1.992972083245
));
#135 = CARTESIAN_POINT('',(-0.122823957276,0.341437615215,1.975498704947
));
#136 = CARTESIAN_POINT('',(-9.205897088813E-002,0.350390570181,
1.954770360878));
#137 = CARTESIAN_POINT('',(-6.118231130818E-002,0.35608523593,
1.931336176065));
#138 = CARTESIAN_POINT('',(7.364882163545E-003,0.361939567039,
1.873975277135));
#139 = CARTESIAN_POINT('',(4.48359268971E-002,0.360408947887,
1.838900575142));
#140 = CARTESIAN_POINT('',(8.111928193888E-002,0.354463200475,
1.80151483216));
#141 = CARTESIAN_POINT('',(0.11576671345,0.34453889518,1.762729120692));
#142 = CARTESIAN_POINT('',(0.148482297849,0.331020909283,1.723275740022)
);
#143 = CARTESIAN_POINT('',(0.179060662245,0.314215685022,1.6837177752));
#144 = CARTESIAN_POINT('',(0.246418082988,0.266769745025,1.59021992077)
);
#145 = CARTESIAN_POINT('',(0.280960530318,0.233368994644,1.536740039251)
);
#146 = CARTESIAN_POINT('',(0.310448030841,0.194702815386,1.48528583083)
);
#147 = CARTESIAN_POINT('',(0.334141091053,0.151208152988,1.437092236632)
);
#148 = CARTESIAN_POINT('',(0.35105423539,0.103484770413,1.393605084516)
);
#149 = CARTESIAN_POINT('',(0.36,5.253890333509E-002,1.356470146538));
#150 = CARTESIAN_POINT('',(0.36,-1.665334536938E-016,1.327256388256));
#151 = TOROIDAL_SURFACE('',#152,3.707317073171,2.292682926829);
#152 = AXIS2_PLACEMENT_3D('',#153,#154,#155);
#153 = CARTESIAN_POINT('',(3.75,-0.942682926829,6.03));
#154 = DIRECTION('',(0.E+000,1.,0.E+000));
#155 = DIRECTION('',(1.,0.E+000,0.E+000));
#156 = ADVANCED_FACE('',(#157,#177),#257,.T.);
#157 = FACE_BOUND('',#158,.T.);
#158 = EDGE_LOOP('',(#159,#160,#169,#176));
#159 = ORIENTED_EDGE('',*,*,#31,.T.);
#160 = ORIENTED_EDGE('',*,*,#161,.T.);
#161 = EDGE_CURVE('',#24,#162,#164,.T.);
#162 = VERTEX_POINT('',#163);
#163 = CARTESIAN_POINT('',(7.457317073171,-3.35,6.03));
#164 = CIRCLE('',#165,2.292682926829);
#165 = AXIS2_PLACEMENT_3D('',#166,#167,#168);
#166 = CARTESIAN_POINT('',(7.457317073171,-1.057317073171,6.03));
#167 = DIRECTION('',(0.E+000,0.E+000,-1.));
#168 = DIRECTION('',(1.,0.E+000,0.E+000));
#169 = ORIENTED_EDGE('',*,*,#170,.F.);
#170 = EDGE_CURVE('',#162,#162,#171,.T.);
#171 = CIRCLE('',#172,3.707317073171);
#172 = AXIS2_PLACEMENT_3D('',#173,#174,#175);
#173 = CARTESIAN_POINT('',(3.75,-3.35,6.03));
#174 = DIRECTION('',(0.E+000,-1.,0.E+000));
#175 = DIRECTION('',(1.,0.E+000,0.E+000));
#176 = ORIENTED_EDGE('',*,*,#161,.F.);
#177 = FACE_BOUND('',#178,.T.);
#178 = EDGE_LOOP('',(#179,#198));
#179 = ORIENTED_EDGE('',*,*,#180,.T.);
#180 = EDGE_CURVE('',#181,#183,#185,.T.);
#181 = VERTEX_POINT('',#182);
#182 = CARTESIAN_POINT('',(7.86,-2.,1.941504252442));
#183 = VERTEX_POINT('',#184);
#184 = CARTESIAN_POINT('',(7.491343229056,-1.640104097944,1.436054701399
));
#185 = B_SPLINE_CURVE_WITH_KNOTS('',6,(#186,#187,#188,#189,#190,#191,
#192,#193,#194,#195,#196,#197),.UNSPECIFIED.,.F.,.F.,(7,5,7),(
0.E+000,0.553348468382,1.),.UNSPECIFIED.);
#186 = CARTESIAN_POINT('',(7.86,-2.,1.941504252442));
#187 = CARTESIAN_POINT('',(7.86,-1.945966241399,1.906945396398));
#188 = CARTESIAN_POINT('',(7.850267975749,-1.893107881505,1.866391844869
));
#189 = CARTESIAN_POINT('',(7.831596692235,-1.843175463403,1.821674059603
));
#190 = CARTESIAN_POINT('',(7.804885767092,-1.79755076026,1.77407473015)
);
#191 = CARTESIAN_POINT('',(7.771056764997,-1.757420524632,1.724617935556
));
#192 = CARTESIAN_POINT('',(7.698833583413,-1.696956838437,1.63371211753)
);
#193 = CARTESIAN_POINT('',(7.662614959416,-1.674329832634,1.592605150417
));
#194 = CARTESIAN_POINT('',(7.622962698444,-1.656676989732,1.551519876515
));
#195 = CARTESIAN_POINT('',(7.580521685126,-1.644683127422,1.511104070107
));
#196 = CARTESIAN_POINT('',(7.536237126204,-1.639024240735,1.472250595005
));
#197 = CARTESIAN_POINT('',(7.491343229056,-1.640104097944,1.436054701399
));
#198 = ORIENTED_EDGE('',*,*,#199,.T.);
#199 = EDGE_CURVE('',#183,#181,#200,.T.);
#200 = B_SPLINE_CURVE_WITH_KNOTS('',7,(#201,#202,#203,#204,#205,#206,
#207,#208,#209,#210,#211,#212,#213,#214,#215,#216,#217,#218,#219,
#220,#221,#222,#223,#224,#225,#226,#227,#228,#229,#230,#231,#232,
#233,#234,#235,#236,#237,#238,#239,#240,#241,#242,#243,#244,#245,
#246,#247,#248,#249,#250,#251,#252,#253,#254,#255,#256),
.UNSPECIFIED.,.F.,.F.,(8,6,6,6,6,6,6,6,6,8),(0.E+000,0.14068999545,
0.218811786528,0.319594501958,0.37367262621,0.536882459295,
0.739338599867,0.821301283343,0.926493285815,1.),.UNSPECIFIED.);
#201 = CARTESIAN_POINT('',(7.491343229056,-1.640104097944,1.436054701399
));
#202 = CARTESIAN_POINT('',(7.457137075287,-1.640926877076,1.408475845894
));
#203 = CARTESIAN_POINT('',(7.422606345403,-1.645552712944,1.38241242734)
);
#204 = CARTESIAN_POINT('',(7.388290230929,-1.654134213863,1.358335716731
));
#205 = CARTESIAN_POINT('',(7.35478503862,-1.666723080698,1.336738922518)
);
#206 = CARTESIAN_POINT('',(7.322725186823,-1.683239161773,1.318124554529
));
#207 = CARTESIAN_POINT('',(7.292741489581,-1.703447138219,1.302960873961
));
#208 = CARTESIAN_POINT('',(7.250212836356,-1.739986330572,1.285303133176
));
#209 = CARTESIAN_POINT('',(7.23584331872,-1.754044206799,1.280173915511)
);
#210 = CARTESIAN_POINT('',(7.222388955145,-1.769041232589,1.276282992668
));
#211 = CARTESIAN_POINT('',(7.209940503874,-1.784887096599,1.273680080281
));
#212 = CARTESIAN_POINT('',(7.198575308255,-1.801476795457,1.27239811132)
);
#213 = CARTESIAN_POINT('',(7.188353903172,-1.818693017225,1.272449953984
));
#214 = CARTESIAN_POINT('',(7.167657879704,-1.859262800718,1.275599204774
));
#215 = CARTESIAN_POINT('',(7.157966576876,-1.882954614376,1.279576198335
));
#216 = CARTESIAN_POINT('',(7.150331732231,-1.907212403971,1.285736331051
));
#217 = CARTESIAN_POINT('',(7.144772573605,-1.931766216014,1.293997587945
));
#218 = CARTESIAN_POINT('',(7.141254337741,-1.956369210037,1.304234240541
));
#219 = CARTESIAN_POINT('',(7.139705069112,-1.980808456492,1.316294415029
));
#220 = CARTESIAN_POINT('',(7.140209602723,-2.0178347984,1.337379831797)
);
#221 = CARTESIAN_POINT('',(7.140926404244,-2.030667151701,1.34522221503)
);
#222 = CARTESIAN_POINT('',(7.142169837966,-2.043375444269,1.353519614792
));
#223 = CARTESIAN_POINT('',(7.143924578588,-2.055935915881,1.362247264537
));
#224 = CARTESIAN_POINT('',(7.146174523539,-2.06832750178,1.371380330701)
);
#225 = CARTESIAN_POINT('',(7.14890335717,-2.080531644838,1.380894370959)
);
#226 = CARTESIAN_POINT('',(7.161727961172,-2.128749960524,1.420558117607
));
#227 = CARTESIAN_POINT('',(7.175572259001,-2.163093110138,1.453589687867
));
#228 = CARTESIAN_POINT('',(7.193187181339,-2.195147155259,1.489228269753
));
#229 = CARTESIAN_POINT('',(7.214163638933,-2.224618352568,1.526875770123
));
#230 = CARTESIAN_POINT('',(7.238153174215,-2.251282110328,1.565980302121
));
#231 = CARTESIAN_POINT('',(7.264875228765,-2.274928843476,1.606020666466
));
#232 = CARTESIAN_POINT('',(7.330358553988,-2.320585822986,1.696630868802
));
#233 = CARTESIAN_POINT('',(7.370362931804,-2.340760758455,1.747270228843
));
#234 = CARTESIAN_POINT('',(7.413780808988,-2.355497769648,1.797541030144
));
#235 = CARTESIAN_POINT('',(7.460199322075,-2.364055888154,1.846217310382
));
#236 = CARTESIAN_POINT('',(7.508864385806,-2.365493672141,1.891476768432
));
#237 = CARTESIAN_POINT('',(7.558347263442,-2.358817623417,1.930952822231
));
#238 = CARTESIAN_POINT('',(7.626165138923,-2.337788440328,1.975611727318
));
#239 = CARTESIAN_POINT('',(7.645492271866,-2.330374982172,1.987209715037
));
#240 = CARTESIAN_POINT('',(7.664458643908,-2.32160400241,1.997405358082)
);
#241 = CARTESIAN_POINT('',(7.682912786639,-2.311497080042,2.006092774945
));
#242 = CARTESIAN_POINT('',(7.700703357378,-2.300103567002,2.013196580039
));
#243 = CARTESIAN_POINT('',(7.717686324614,-2.287502612444,2.018677554078
));
#244 = CARTESIAN_POINT('',(7.754325584437,-2.25622572835,2.027493265852)
);
#245 = CARTESIAN_POINT('',(7.773383618187,-2.236833235503,2.029781134099
));
#246 = CARTESIAN_POINT('',(7.790628988547,-2.215860021523,2.02940055672)
);
#247 = CARTESIAN_POINT('',(7.805868124193,-2.19358908734,2.026471846993)
);
#248 = CARTESIAN_POINT('',(7.818988874888,-2.170315914585,2.021185681485
));
#249 = CARTESIAN_POINT('',(7.829947858932,-2.14632216752,2.013762317188)
);
#250 = CARTESIAN_POINT('',(7.844896451448,-2.104768391603,1.997893991507
));
#251 = CARTESIAN_POINT('',(7.84999213201,-2.087444282477,1.990429051456)
);
#252 = CARTESIAN_POINT('',(7.854036443939,-2.069971050094,1.982099651595
));
#253 = CARTESIAN_POINT('',(7.857040292589,-2.052424398711,1.972977258082
));
#254 = CARTESIAN_POINT('',(7.859021035554,-2.0348734046,1.963129883312)
);
#255 = CARTESIAN_POINT('',(7.86,-2.017380257153,1.952620299531));
#256 = CARTESIAN_POINT('',(7.86,-2.,1.941504252442));
#257 = TOROIDAL_SURFACE('',#258,3.707317073171,2.292682926829);
#258 = AXIS2_PLACEMENT_3D('',#259,#260,#261);
#259 = CARTESIAN_POINT('',(3.75,-1.057317073171,6.03));
#260 = DIRECTION('',(0.E+000,-1.,0.E+000));
#261 = DIRECTION('',(1.,0.E+000,0.E+000));
#262 = ADVANCED_FACE('',(#263),#266,.F.);
#263 = FACE_BOUND('',#264,.F.);
#264 = EDGE_LOOP('',(#265));
#265 = ORIENTED_EDGE('',*,*,#64,.T.);
#266 = PLANE('',#267);
#267 = AXIS2_PLACEMENT_3D('',#268,#269,#270);
#268 = CARTESIAN_POINT('',(3.75,1.35,6.03));
#269 = DIRECTION('',(-0.E+000,-1.,-0.E+000));
#270 = DIRECTION('',(0.E+000,0.E+000,-1.));
#271 = ADVANCED_FACE('',(#272),#292,.T.);
#272 = FACE_BOUND('',#273,.T.);
#273 = EDGE_LOOP('',(#274,#275,#283,#290,#291));
#274 = ORIENTED_EDGE('',*,*,#111,.T.);
#275 = ORIENTED_EDGE('',*,*,#276,.T.);
#276 = EDGE_CURVE('',#75,#277,#279,.T.);
#277 = VERTEX_POINT('',#278);
#278 = CARTESIAN_POINT('',(0.36,0.E+000,-2.856));
#279 = LINE('',#280,#281);
#280 = CARTESIAN_POINT('',(0.36,0.E+000,6.03));
#281 = VECTOR('',#282,1.);
#282 = DIRECTION('',(-0.E+000,-0.E+000,-1.));
#283 = ORIENTED_EDGE('',*,*,#284,.T.);
#284 = EDGE_CURVE('',#277,#277,#285,.T.);
#285 = CIRCLE('',#286,0.36);
#286 = AXIS2_PLACEMENT_3D('',#287,#288,#289);
#287 = CARTESIAN_POINT('',(0.E+000,0.E+000,-2.856));
#288 = DIRECTION('',(0.E+000,0.E+000,1.));
#289 = DIRECTION('',(1.,0.E+000,0.E+000));
#290 = ORIENTED_EDGE('',*,*,#276,.F.);
#291 = ORIENTED_EDGE('',*,*,#74,.T.);
#292 = CYLINDRICAL_SURFACE('',#293,0.36);
#293 = AXIS2_PLACEMENT_3D('',#294,#295,#296);
#294 = CARTESIAN_POINT('',(0.E+000,0.E+000,6.03));
#295 = DIRECTION('',(0.E+000,0.E+000,1.));
#296 = DIRECTION('',(1.,0.E+000,0.E+000));
#297 = ADVANCED_FACE('',(#298),#301,.T.);
#298 = FACE_BOUND('',#299,.T.);
#299 = EDGE_LOOP('',(#300));
#300 = ORIENTED_EDGE('',*,*,#170,.T.);
#301 = PLANE('',#302);
#302 = AXIS2_PLACEMENT_3D('',#303,#304,#305);
#303 = CARTESIAN_POINT('',(3.75,-3.35,6.03));
#304 = DIRECTION('',(-0.E+000,-1.,-0.E+000));
#305 = DIRECTION('',(0.E+000,0.E+000,-1.));
#306 = ADVANCED_FACE('',(#307),#327,.T.);
#307 = FACE_BOUND('',#308,.T.);
#308 = EDGE_LOOP('',(#309,#310,#318,#325,#326));
#309 = ORIENTED_EDGE('',*,*,#180,.F.);
#310 = ORIENTED_EDGE('',*,*,#311,.T.);
#311 = EDGE_CURVE('',#181,#312,#314,.T.);
#312 = VERTEX_POINT('',#313);
#313 = CARTESIAN_POINT('',(7.86,-2.,-2.856));
#314 = LINE('',#315,#316);
#315 = CARTESIAN_POINT('',(7.86,-2.,6.03));
#316 = VECTOR('',#317,1.);
#317 = DIRECTION('',(-0.E+000,-0.E+000,-1.));
#318 = ORIENTED_EDGE('',*,*,#319,.T.);
#319 = EDGE_CURVE('',#312,#312,#320,.T.);
#320 = CIRCLE('',#321,0.36);
#321 = AXIS2_PLACEMENT_3D('',#322,#323,#324);
#322 = CARTESIAN_POINT('',(7.5,-2.,-2.856));
#323 = DIRECTION('',(0.E+000,0.E+000,1.));
#324 = DIRECTION('',(1.,0.E+000,0.E+000));
#325 = ORIENTED_EDGE('',*,*,#311,.F.);
#326 = ORIENTED_EDGE('',*,*,#199,.F.);
#327 = CYLINDRICAL_SURFACE('',#328,0.36);
#328 = AXIS2_PLACEMENT_3D('',#329,#330,#331);
#329 = CARTESIAN_POINT('',(7.5,-2.,6.03));
#330 = DIRECTION('',(0.E+000,0.E+000,1.));
#331 = DIRECTION('',(1.,0.E+000,0.E+000));
#332 = ADVANCED_FACE('',(#333),#353,.T.);
#333 = FACE_BOUND('',#334,.F.);
#334 = EDGE_LOOP('',(#335,#344,#345,#346));
#335 = ORIENTED_EDGE('',*,*,#336,.F.);
#336 = EDGE_CURVE('',#277,#337,#339,.T.);
#337 = VERTEX_POINT('',#338);
#338 = CARTESIAN_POINT('',(0.216,0.E+000,-3.));
#339 = CIRCLE('',#340,0.144);
#340 = AXIS2_PLACEMENT_3D('',#341,#342,#343);
#341 = CARTESIAN_POINT('',(0.216,0.E+000,-2.856));
#342 = DIRECTION('',(-0.E+000,1.,0.E+000));
#343 = DIRECTION('',(1.,0.E+000,0.E+000));
#344 = ORIENTED_EDGE('',*,*,#284,.T.);
#345 = ORIENTED_EDGE('',*,*,#336,.T.);
#346 = ORIENTED_EDGE('',*,*,#347,.F.);
#347 = EDGE_CURVE('',#337,#337,#348,.T.);
#348 = CIRCLE('',#349,0.216);
#349 = AXIS2_PLACEMENT_3D('',#350,#351,#352);
#350 = CARTESIAN_POINT('',(0.E+000,0.E+000,-3.));
#351 = DIRECTION('',(0.E+000,0.E+000,1.));
#352 = DIRECTION('',(1.,0.E+000,0.E+000));
#353 = TOROIDAL_SURFACE('',#354,0.216,0.144);
#354 = AXIS2_PLACEMENT_3D('',#355,#356,#357);
#355 = CARTESIAN_POINT('',(0.E+000,0.E+000,-2.856));
#356 = DIRECTION('',(-0.E+000,-0.E+000,-1.));
#357 = DIRECTION('',(1.,0.E+000,0.E+000));
#358 = ADVANCED_FACE('',(#359),#379,.T.);
#359 = FACE_BOUND('',#360,.F.);
#360 = EDGE_LOOP('',(#361,#370,#371,#372));
#361 = ORIENTED_EDGE('',*,*,#362,.F.);
#362 = EDGE_CURVE('',#312,#363,#365,.T.);
#363 = VERTEX_POINT('',#364);
#364 = CARTESIAN_POINT('',(7.716,-2.,-3.));
#365 = CIRCLE('',#366,0.144);
#366 = AXIS2_PLACEMENT_3D('',#367,#368,#369);
#367 = CARTESIAN_POINT('',(7.716,-2.,-2.856));
#368 = DIRECTION('',(-0.E+000,1.,0.E+000));
#369 = DIRECTION('',(1.,0.E+000,0.E+000));
#370 = ORIENTED_EDGE('',*,*,#319,.T.);
#371 = ORIENTED_EDGE('',*,*,#362,.T.);
#372 = ORIENTED_EDGE('',*,*,#373,.F.);
#373 = EDGE_CURVE('',#363,#363,#374,.T.);
#374 = CIRCLE('',#375,0.216);
#375 = AXIS2_PLACEMENT_3D('',#376,#377,#378);
#376 = CARTESIAN_POINT('',(7.5,-2.,-3.));
#377 = DIRECTION('',(0.E+000,0.E+000,1.));
#378 = DIRECTION('',(1.,0.E+000,0.E+000));
#379 = TOROIDAL_SURFACE('',#380,0.216,0.144);
#380 = AXIS2_PLACEMENT_3D('',#381,#382,#383);
#381 = CARTESIAN_POINT('',(7.5,-2.,-2.856));
#382 = DIRECTION('',(-0.E+000,-0.E+000,-1.));
#383 = DIRECTION('',(1.,0.E+000,0.E+000));
#384 = ADVANCED_FACE('',(#385),#388,.F.);
#385 = FACE_BOUND('',#386,.F.);
#386 = EDGE_LOOP('',(#387));
#387 = ORIENTED_EDGE('',*,*,#347,.T.);
#388 = PLANE('',#389);
#389 = AXIS2_PLACEMENT_3D('',#390,#391,#392);
#390 = CARTESIAN_POINT('',(-1.483767504926E-017,1.497958850874E-017,-3.)
);
#391 = DIRECTION('',(0.E+000,0.E+000,1.));
#392 = DIRECTION('',(1.,0.E+000,0.E+000));
#393 = ADVANCED_FACE('',(#394),#397,.F.);
#394 = FACE_BOUND('',#395,.F.);
#395 = EDGE_LOOP('',(#396));
#396 = ORIENTED_EDGE('',*,*,#373,.T.);
#397 = PLANE('',#398);
#398 = AXIS2_PLACEMENT_3D('',#399,#400,#401);
#399 = CARTESIAN_POINT('',(7.5,-2.,-3.));
#400 = DIRECTION('',(0.E+000,0.E+000,1.));
#401 = DIRECTION('',(1.,0.E+000,0.E+000));
#402 = ( GEOMETRIC_REPRESENTATION_CONTEXT(3)
GLOBAL_UNCERTAINTY_ASSIGNED_CONTEXT((#406)) GLOBAL_UNIT_ASSIGNED_CONTEXT
((#403,#404,#405)) REPRESENTATION_CONTEXT('Context #1',
'3D Context with UNIT and UNCERTAINTY') );
#403 = ( LENGTH_UNIT() NAMED_UNIT(*) SI_UNIT(.MILLI.,.METRE.) );
#404 = ( NAMED_UNIT(*) PLANE_ANGLE_UNIT() SI_UNIT($,.RADIAN.) );
#405 = ( NAMED_UNIT(*) SI_UNIT($,.STERADIAN.) SOLID_ANGLE_UNIT() );
#406 = UNCERTAINTY_MEASURE_WITH_UNIT(LENGTH_MEASURE(1.E-007),#403,
'distance_accuracy_value','confusion accuracy');
#407 = PRODUCT_RELATED_PRODUCT_CATEGORY('part',$,(#7));
#408 = MECHANICAL_DESIGN_GEOMETRIC_PRESENTATION_REPRESENTATION('',(#409,
#417,#424,#431,#438,#446,#453,#460,#467,#474,#481),#402);
#409 = STYLED_ITEM('color',(#410),#17);
#410 = PRESENTATION_STYLE_ASSIGNMENT((#411));
#411 = SURFACE_STYLE_USAGE(.BOTH.,#412);
#412 = SURFACE_SIDE_STYLE('',(#413));
#413 = SURFACE_STYLE_FILL_AREA(#414);
#414 = FILL_AREA_STYLE('',(#415));
#415 = FILL_AREA_STYLE_COLOUR('',#416);
#416 = COLOUR_RGB('',0.136999994516,0.402000010014,0.726999998093);
#417 = STYLED_ITEM('color',(#418),#50);
#418 = PRESENTATION_STYLE_ASSIGNMENT((#419));
#419 = SURFACE_STYLE_USAGE(.BOTH.,#420);
#420 = SURFACE_SIDE_STYLE('',(#421));
#421 = SURFACE_STYLE_FILL_AREA(#422);
#422 = FILL_AREA_STYLE('',(#423));
#423 = FILL_AREA_STYLE_COLOUR('',#416);
#424 = STYLED_ITEM('color',(#425),#156);
#425 = PRESENTATION_STYLE_ASSIGNMENT((#426));
#426 = SURFACE_STYLE_USAGE(.BOTH.,#427);
#427 = SURFACE_SIDE_STYLE('',(#428));
#428 = SURFACE_STYLE_FILL_AREA(#429);
#429 = FILL_AREA_STYLE('',(#430));
#430 = FILL_AREA_STYLE_COLOUR('',#416);
#431 = STYLED_ITEM('color',(#432),#262);
#432 = PRESENTATION_STYLE_ASSIGNMENT((#433));
#433 = SURFACE_STYLE_USAGE(.BOTH.,#434);
#434 = SURFACE_SIDE_STYLE('',(#435));
#435 = SURFACE_STYLE_FILL_AREA(#436);
#436 = FILL_AREA_STYLE('',(#437));
#437 = FILL_AREA_STYLE_COLOUR('',#416);
#438 = STYLED_ITEM('color',(#439),#271);
#439 = PRESENTATION_STYLE_ASSIGNMENT((#440));
#440 = SURFACE_STYLE_USAGE(.BOTH.,#441);
#441 = SURFACE_SIDE_STYLE('',(#442));
#442 = SURFACE_STYLE_FILL_AREA(#443);
#443 = FILL_AREA_STYLE('',(#444));
#444 = FILL_AREA_STYLE_COLOUR('',#445);
#445 = COLOUR_RGB('',0.824000000954,0.819999992847,0.78100001812);
#446 = STYLED_ITEM('color',(#447),#297);
#447 = PRESENTATION_STYLE_ASSIGNMENT((#448));
#448 = SURFACE_STYLE_USAGE(.BOTH.,#449);
#449 = SURFACE_SIDE_STYLE('',(#450));
#450 = SURFACE_STYLE_FILL_AREA(#451);
#451 = FILL_AREA_STYLE('',(#452));
#452 = FILL_AREA_STYLE_COLOUR('',#416);
#453 = STYLED_ITEM('color',(#454),#306);
#454 = PRESENTATION_STYLE_ASSIGNMENT((#455));
#455 = SURFACE_STYLE_USAGE(.BOTH.,#456);
#456 = SURFACE_SIDE_STYLE('',(#457));
#457 = SURFACE_STYLE_FILL_AREA(#458);
#458 = FILL_AREA_STYLE('',(#459));
#459 = FILL_AREA_STYLE_COLOUR('',#445);
#460 = STYLED_ITEM('color',(#461),#332);
#461 = PRESENTATION_STYLE_ASSIGNMENT((#462));
#462 = SURFACE_STYLE_USAGE(.BOTH.,#463);
#463 = SURFACE_SIDE_STYLE('',(#464));
#464 = SURFACE_STYLE_FILL_AREA(#465);
#465 = FILL_AREA_STYLE('',(#466));
#466 = FILL_AREA_STYLE_COLOUR('',#445);
#467 = STYLED_ITEM('color',(#468),#358);
#468 = PRESENTATION_STYLE_ASSIGNMENT((#469));
#469 = SURFACE_STYLE_USAGE(.BOTH.,#470);
#470 = SURFACE_SIDE_STYLE('',(#471));
#471 = SURFACE_STYLE_FILL_AREA(#472);
#472 = FILL_AREA_STYLE('',(#473));
#473 = FILL_AREA_STYLE_COLOUR('',#445);
#474 = STYLED_ITEM('color',(#475),#384);
#475 = PRESENTATION_STYLE_ASSIGNMENT((#476));
#476 = SURFACE_STYLE_USAGE(.BOTH.,#477);
#477 = SURFACE_SIDE_STYLE('',(#478));
#478 = SURFACE_STYLE_FILL_AREA(#479);
#479 = FILL_AREA_STYLE('',(#480));
#480 = FILL_AREA_STYLE_COLOUR('',#445);
#481 = STYLED_ITEM('color',(#482),#393);
#482 = PRESENTATION_STYLE_ASSIGNMENT((#483));
#483 = SURFACE_STYLE_USAGE(.BOTH.,#484);
#484 = SURFACE_SIDE_STYLE('',(#485));
#485 = SURFACE_STYLE_FILL_AREA(#486);
#486 = FILL_AREA_STYLE('',(#487));
#487 = FILL_AREA_STYLE_COLOUR('',#445);
ENDSEC;
END-ISO-10303-21;
