ISO-10303-21;
HEADER;
/* RV_Disc_D21.5mm_W5.6mm_P10mm.step 3D STEP model for use in ECAD systems
 * Copyright (C) 2018, kicad StepUp
 * 
 * This work is licensed under the [Creative Commons CC-BY-SA 4.0 License](https://creativecommons.org/licenses/by-sa/4.0/legalcode), 
 * with the following exception:
 * To the extent that the creation of electronic designs that use 'Licensed Material' can be considered to be 'Adapted Material', 
 * then the copyright holder waives article 3 of the license with respect to these designs and any generated files which use data provided 
 * as part of the 'Licensed Material'.
 * You are free to use the library data in your own projects without the obligation to share your project files under this or any other license agreement.
 * However, if you wish to redistribute these libraries, or parts thereof (including in modified form) as a collection then the exception above does not apply. 
 * Please refer to https://github.com/KiCad/kicad-packages3D/blob/master/LICENSE.md for further clarification of the exception.
 * Disclaimer of Warranties and Limitation of Liability.
 * These libraries are provided in the hope that they will be useful, but are provided without warranty of any kind, express or implied.
 * *USE 3D CAD DATA AT YOUR OWN RISK*
 * *DO NOT RELY UPON ANY INFORMATION FOUND HERE WITHOUT INDEPENDENT VERIFICATION.*
 * 
 */

FILE_DESCRIPTION(
/* description */ ('model of RV_Disc_D21.5mm_W5.6mm_P10mm'),
/* implementation_level */ '2;1');

FILE_NAME(
/* name */ 'RV_Disc_D21.5mm_W5.6mm_P10mm.step',
/* time_stamp */ '2018-11-11T21:04:02',
/* author */ ('kicad StepUp','ksu'),
/* organization */ ('FreeCAD'),
/* preprocessor_version */ 'OCC',
/* originating_system */ 'kicad StepUp',
/* authorisation */ '');

FILE_SCHEMA(('AUTOMOTIVE_DESIGN { 1 0 10303 214 1 1 1 1 }'));
ENDSEC;

DATA;
#1 = APPLICATION_PROTOCOL_DEFINITION('international standard',
'automotive_design',2000,#2);
#2 = APPLICATION_CONTEXT(
'core data for automotive mechanical design processes');
#3 = SHAPE_DEFINITION_REPRESENTATION(#4,#10);
#4 = PRODUCT_DEFINITION_SHAPE('','',#5);
#5 = PRODUCT_DEFINITION('design','',#6,#9);
#6 = PRODUCT_DEFINITION_FORMATION('','',#7);
#7 = PRODUCT('RV_Disc_D215mm_W56mm_P10mm','RV_Disc_D215mm_W56mm_P10mm',
'',(#8));
#8 = PRODUCT_CONTEXT('',#2,'mechanical');
#9 = PRODUCT_DEFINITION_CONTEXT('part definition',#2,'design');
#10 = ADVANCED_BREP_SHAPE_REPRESENTATION('',(#11,#15),#391);
#11 = AXIS2_PLACEMENT_3D('',#12,#13,#14);
#12 = CARTESIAN_POINT('',(0.E+000,0.E+000,0.E+000));
#13 = DIRECTION('',(0.E+000,0.E+000,1.));
#14 = DIRECTION('',(1.,0.E+000,-0.E+000));
#15 = MANIFOLD_SOLID_BREP('',#16);
#16 = CLOSED_SHELL('',(#17,#50,#155,#251,#260,#286,#295,#321,#347,#373,
#382));
#17 = ADVANCED_FACE('',(#18),#45,.T.);
#18 = FACE_BOUND('',#19,.F.);
#19 = EDGE_LOOP('',(#20,#30,#37,#38));
#20 = ORIENTED_EDGE('',*,*,#21,.T.);
#21 = EDGE_CURVE('',#22,#24,#26,.T.);
#22 = VERTEX_POINT('',#23);
#23 = CARTESIAN_POINT('',(15.75,-1.131707317073,10.78));
#24 = VERTEX_POINT('',#25);
#25 = CARTESIAN_POINT('',(15.75,-1.268292682927,10.78));
#26 = LINE('',#27,#28);
#27 = CARTESIAN_POINT('',(15.75,1.6,10.78));
#28 = VECTOR('',#29,1.);
#29 = DIRECTION('',(0.E+000,-1.,0.E+000));
#30 = ORIENTED_EDGE('',*,*,#31,.T.);
#31 = EDGE_CURVE('',#24,#24,#32,.T.);
#32 = CIRCLE('',#33,10.75);
#33 = AXIS2_PLACEMENT_3D('',#34,#35,#36);
#34 = CARTESIAN_POINT('',(5.,-1.268292682927,10.78));
#35 = DIRECTION('',(1.137711779659E-033,-1.,-3.413135338977E-033));
#36 = DIRECTION('',(1.,1.137711779659E-033,8.67319700432E-034));
#37 = ORIENTED_EDGE('',*,*,#21,.F.);
#38 = ORIENTED_EDGE('',*,*,#39,.F.);
#39 = EDGE_CURVE('',#22,#22,#40,.T.);
#40 = CIRCLE('',#41,10.75);
#41 = AXIS2_PLACEMENT_3D('',#42,#43,#44);
#42 = CARTESIAN_POINT('',(5.,-1.131707317073,10.78));
#43 = DIRECTION('',(1.137711779659E-033,-1.,-3.413135338977E-033));
#44 = DIRECTION('',(1.,1.137711779659E-033,-8.67319700432E-034));
#45 = CYLINDRICAL_SURFACE('',#46,10.75);
#46 = AXIS2_PLACEMENT_3D('',#47,#48,#49);
#47 = CARTESIAN_POINT('',(5.,1.6,10.78));
#48 = DIRECTION('',(0.E+000,1.,0.E+000));
#49 = DIRECTION('',(1.,0.E+000,0.E+000));
#50 = ADVANCED_FACE('',(#51,#71),#150,.T.);
#51 = FACE_BOUND('',#52,.F.);
#52 = EDGE_LOOP('',(#53,#54,#63,#70));
#53 = ORIENTED_EDGE('',*,*,#39,.T.);
#54 = ORIENTED_EDGE('',*,*,#55,.T.);
#55 = EDGE_CURVE('',#22,#56,#58,.T.);
#56 = VERTEX_POINT('',#57);
#57 = CARTESIAN_POINT('',(13.018292682927,1.6,10.78));
#58 = CIRCLE('',#59,2.731707317073);
#59 = AXIS2_PLACEMENT_3D('',#60,#61,#62);
#60 = CARTESIAN_POINT('',(13.018292682927,-1.131707317073,10.78));
#61 = DIRECTION('',(8.67319700432E-034,-3.413135338977E-033,1.));
#62 = DIRECTION('',(1.,1.137711779659E-033,-8.67319700432E-034));
#63 = ORIENTED_EDGE('',*,*,#64,.F.);
#64 = EDGE_CURVE('',#56,#56,#65,.T.);
#65 = CIRCLE('',#66,8.018292682927);
#66 = AXIS2_PLACEMENT_3D('',#67,#68,#69);
#67 = CARTESIAN_POINT('',(5.,1.6,10.78));
#68 = DIRECTION('',(1.137711779659E-033,-1.,-3.413135338977E-033));
#69 = DIRECTION('',(1.,1.137711779659E-033,-8.67319700432E-034));
#70 = ORIENTED_EDGE('',*,*,#55,.F.);
#71 = FACE_BOUND('',#72,.F.);
#72 = EDGE_LOOP('',(#73,#103));
#73 = ORIENTED_EDGE('',*,*,#74,.T.);
#74 = EDGE_CURVE('',#75,#77,#79,.T.);
#75 = VERTEX_POINT('',#76);
#76 = CARTESIAN_POINT('',(0.45,0.E+000,1.31200021829));
#77 = VERTEX_POINT('',#78);
#78 = CARTESIAN_POINT('',(-0.273508315758,-0.357341854827,1.541168737693
));
#79 = B_SPLINE_CURVE_WITH_KNOTS('',8,(#80,#81,#82,#83,#84,#85,#86,#87,
#88,#89,#90,#91,#92,#93,#94,#95,#96,#97,#98,#99,#100,#101,#102),
.UNSPECIFIED.,.F.,.F.,(9,7,7,9),(0.E+000,0.24603160408,0.462003367145,
1.),.UNSPECIFIED.);
#80 = CARTESIAN_POINT('',(0.45,-1.665334536938E-016,1.31200021829));
#81 = CARTESIAN_POINT('',(0.45,-2.896712694948E-002,1.297371273254));
#82 = CARTESIAN_POINT('',(0.447868930169,-5.823581346649E-002,
1.284135630246));
#83 = CARTESIAN_POINT('',(0.443529313355,-8.762866607645E-002,
1.272421050639));
#84 = CARTESIAN_POINT('',(0.4369186281,-0.116945119739,1.262346006244));
#85 = CARTESIAN_POINT('',(0.427998290315,-0.145961096169,1.254012725919)
);
#86 = CARTESIAN_POINT('',(0.416762697089,-0.174432566544,1.247500325005)
);
#87 = CARTESIAN_POINT('',(0.403248332613,-0.202103018592,1.242858017564)
);
#88 = CARTESIAN_POINT('',(0.373756406007,-0.252075239146,1.237675970625)
);
#89 = CARTESIAN_POINT('',(0.358278388491,-0.274625327889,1.236703732911)
);
#90 = CARTESIAN_POINT('',(0.341166812135,-0.296189731529,1.237191598104)
);
#91 = CARTESIAN_POINT('',(0.322503693669,-0.31660379334,1.239126536256)
);
#92 = CARTESIAN_POINT('',(0.302392359258,-0.335715916929,1.242475699138)
);
#93 = CARTESIAN_POINT('',(0.280954665647,-0.353389920528,1.247189531702)
);
#94 = CARTESIAN_POINT('',(0.258328221308,-0.369507391283,1.253204883554)
);
#95 = CARTESIAN_POINT('',(0.175713852706,-0.419997231059,1.278491391375)
);
#96 = CARTESIAN_POINT('',(0.109728900529,-0.446117707075,1.304335306569)
);
#97 = CARTESIAN_POINT('',(3.952053600964E-002,-0.460008375419,
1.33689365745));
#98 = CARTESIAN_POINT('',(-3.152503828936E-002,-0.461012451617,
1.374221350863));
#99 = CARTESIAN_POINT('',(-0.100390299891,-0.449744293076,1.414553963813
));
#100 = CARTESIAN_POINT('',(-0.164680561928,-0.427566981618,
1.456495580247));
#101 = CARTESIAN_POINT('',(-0.222742316719,-0.396197988547,
1.498966388917));
#102 = CARTESIAN_POINT('',(-0.273508315758,-0.357341854827,
1.541168737693));
#103 = ORIENTED_EDGE('',*,*,#104,.T.);
#104 = EDGE_CURVE('',#77,#75,#105,.T.);
#105 = B_SPLINE_CURVE_WITH_KNOTS('',7,(#106,#107,#108,#109,#110,#111,
#112,#113,#114,#115,#116,#117,#118,#119,#120,#121,#122,#123,#124,
#125,#126,#127,#128,#129,#130,#131,#132,#133,#134,#135,#136,#137,
#138,#139,#140,#141,#142,#143,#144,#145,#146,#147,#148,#149),
.UNSPECIFIED.,.F.,.F.,(8,6,6,6,6,6,6,8),(0.E+000,7.582985198685E-002,
0.342625734218,0.401086320675,0.493878664709,0.630447249729,
0.790011420523,1.),.UNSPECIFIED.);
#106 = CARTESIAN_POINT('',(-0.273508315758,-0.357341854827,
1.541168737693));
#107 = CARTESIAN_POINT('',(-0.289196237751,-0.345334369379,
1.554210284557));
#108 = CARTESIAN_POINT('',(-0.304202065915,-0.332574715603,
1.567249861122));
#109 = CARTESIAN_POINT('',(-0.31849313856,-0.319107515012,1.580266888718
));
#110 = CARTESIAN_POINT('',(-0.332039685396,-0.304977517098,1.59324221439
));
#111 = CARTESIAN_POINT('',(-0.344814560682,-0.290229506429,
1.606157685529));
#112 = CARTESIAN_POINT('',(-0.356792976377,-0.274908209737,
1.618995724487));
#113 = CARTESIAN_POINT('',(-0.407214402483,-0.203292348023,
1.676573853023));
#114 = CARTESIAN_POINT('',(-0.436291370919,-0.141045287761,
1.720183075693));
#115 = CARTESIAN_POINT('',(-0.454302455148,-7.4194156216E-002,
1.76188903469));
#116 = CARTESIAN_POINT('',(-0.460499580568,-4.635786106705E-003,
1.800922711216));
#117 = CARTESIAN_POINT('',(-0.454325672989,6.55221734024E-002,
1.836246029505));
#118 = CARTESIAN_POINT('',(-0.435480487968,0.133961422071,1.866315546171
));
#119 = CARTESIAN_POINT('',(-0.397210692831,0.212056607828,1.893981509903
));
#120 = CARTESIAN_POINT('',(-0.3897323591,0.225877682303,1.898598121466)
);
#121 = CARTESIAN_POINT('',(-0.381657329851,0.239453507059,1.90283626613)
);
#122 = CARTESIAN_POINT('',(-0.372990764026,0.252752777367,1.906672075817
));
#123 = CARTESIAN_POINT('',(-0.363740320862,0.265742976431,1.910080849366
));
#124 = CARTESIAN_POINT('',(-0.353916645463,0.278390729732,1.913037603369
));
#125 = CARTESIAN_POINT('',(-0.327053631021,0.31014014944,1.919454067207)
);
#126 = CARTESIAN_POINT('',(-0.309163795744,0.328671297235,1.92218957009)
);
#127 = CARTESIAN_POINT('',(-0.289921848734,0.346118019973,1.923625464757
));
#128 = CARTESIAN_POINT('',(-0.269410432232,0.362339147086,1.923664868781
));
#129 = CARTESIAN_POINT('',(-0.247738877057,0.377198685377,1.922224448581
));
#130 = CARTESIAN_POINT('',(-0.225044749137,0.390574584158,1.919246183786
));
#131 = CARTESIAN_POINT('',(-0.166836266948,0.419723909489,1.908031654011
));
#132 = CARTESIAN_POINT('',(-0.130297338402,0.433665291594,1.897972824652
));
#133 = CARTESIAN_POINT('',(-9.243352898878E-002,0.443851658781,
1.884463959972));
#134 = CARTESIAN_POINT('',(-5.389610708508E-002,0.450096702832,
1.867621125889));
#135 = CARTESIAN_POINT('',(-1.537728527521E-002,0.452397386046,
1.847792287538));
#136 = CARTESIAN_POINT('',(2.244259224941E-002,0.450945714071,
1.825539471311));
#137 = CARTESIAN_POINT('',(0.101594311865,0.440487560911,1.773534030555)
);
#138 = CARTESIAN_POINT('',(0.142529564408,0.430238691369,1.743093741014)
);
#139 = CARTESIAN_POINT('',(0.181312424248,0.41587941253,1.710958517981)
);
#140 = CARTESIAN_POINT('',(0.217670136964,0.397880353646,1.677789030048)
);
#141 = CARTESIAN_POINT('',(0.251432342838,0.376638789445,1.644132638791)
);
#142 = CARTESIAN_POINT('',(0.282475071873,0.352458477139,1.610419375908)
);
#143 = CARTESIAN_POINT('',(0.347779967977,0.290138047316,1.533029905069)
);
#144 = CARTESIAN_POINT('',(0.379896043311,0.250061831374,1.489647207742)
);
#145 = CARTESIAN_POINT('',(0.40670302627,0.205878784502,1.447725180915)
);
#146 = CARTESIAN_POINT('',(0.427737446195,0.158074616573,1.408103666907)
);
#147 = CARTESIAN_POINT('',(0.442392096117,0.107234163348,1.371672782031)
);
#148 = CARTESIAN_POINT('',(0.45,5.416874233757E-002,1.339356454058));
#149 = CARTESIAN_POINT('',(0.45,-1.665334536938E-016,1.31200021829));
#150 = TOROIDAL_SURFACE('',#151,8.018292682927,2.731707317073);
#151 = AXIS2_PLACEMENT_3D('',#152,#153,#154);
#152 = CARTESIAN_POINT('',(5.,-1.131707317073,10.78));
#153 = DIRECTION('',(-1.137711779659E-033,1.,3.413135338977E-033));
#154 = DIRECTION('',(1.,1.137711779659E-033,-8.67319700432E-034));
#155 = ADVANCED_FACE('',(#156,#176),#246,.T.);
#156 = FACE_BOUND('',#157,.T.);
#157 = EDGE_LOOP('',(#158,#159,#168,#175));
#158 = ORIENTED_EDGE('',*,*,#31,.T.);
#159 = ORIENTED_EDGE('',*,*,#160,.T.);
#160 = EDGE_CURVE('',#24,#161,#163,.T.);
#161 = VERTEX_POINT('',#162);
#162 = CARTESIAN_POINT('',(13.018292682927,-4.,10.78));
#163 = CIRCLE('',#164,2.731707317073);
#164 = AXIS2_PLACEMENT_3D('',#165,#166,#167);
#165 = CARTESIAN_POINT('',(13.018292682927,-1.268292682927,10.78));
#166 = DIRECTION('',(8.67319700432E-034,3.413135338977E-033,-1.));
#167 = DIRECTION('',(1.,1.137711779659E-033,8.67319700432E-034));
#168 = ORIENTED_EDGE('',*,*,#169,.F.);
#169 = EDGE_CURVE('',#161,#161,#170,.T.);
#170 = CIRCLE('',#171,8.018292682927);
#171 = AXIS2_PLACEMENT_3D('',#172,#173,#174);
#172 = CARTESIAN_POINT('',(5.,-4.,10.78));
#173 = DIRECTION('',(1.137711779659E-033,-1.,-3.413135338977E-033));
#174 = DIRECTION('',(1.,1.137711779659E-033,8.67319700432E-034));
#175 = ORIENTED_EDGE('',*,*,#160,.F.);
#176 = FACE_BOUND('',#177,.T.);
#177 = EDGE_LOOP('',(#178,#201));
#178 = ORIENTED_EDGE('',*,*,#179,.T.);
#179 = EDGE_CURVE('',#180,#182,#184,.T.);
#180 = VERTEX_POINT('',#181);
#181 = CARTESIAN_POINT('',(10.45,-2.4,1.799854128888));
#182 = VERTEX_POINT('',#183);
#183 = CARTESIAN_POINT('',(9.794136257088,-1.999849878978,1.269822605319
));
#184 = B_SPLINE_CURVE_WITH_KNOTS('',8,(#185,#186,#187,#188,#189,#190,
#191,#192,#193,#194,#195,#196,#197,#198,#199,#200),.UNSPECIFIED.,.F.
,.F.,(9,7,9),(0.E+000,0.316160393911,1.),.UNSPECIFIED.);
#185 = CARTESIAN_POINT('',(10.45,-2.4,1.799854128888));
#186 = CARTESIAN_POINT('',(10.45,-2.364810292396,1.781117213667));
#187 = CARTESIAN_POINT('',(10.446855060476,-2.329802334933,
1.761384265919));
#188 = CARTESIAN_POINT('',(10.440622033828,-2.295245977403,1.74081200167
));
#189 = CARTESIAN_POINT('',(10.431369459762,-2.261402500967,
1.719533656551));
#190 = CARTESIAN_POINT('',(10.419178398434,-2.228526298079,
1.697664468293));
#191 = CARTESIAN_POINT('',(10.404143263594,-2.19686655241,1.675307159222
));
#192 = CARTESIAN_POINT('',(10.386372655729,-2.166668918771,
1.652557418753));
#193 = CARTESIAN_POINT('',(10.321903921143,-2.076551003031,
1.579657608045));
#194 = CARTESIAN_POINT('',(10.265757315012,-2.023128146309,
1.528590204685));
#195 = CARTESIAN_POINT('',(10.198618315126,-1.979795146425,
1.476890768848));
#196 = CARTESIAN_POINT('',(10.121752344987,-1.949298585411,
1.425526041938));
#197 = CARTESIAN_POINT('',(10.037856408673,-1.934808697941,
1.376236947109));
#198 = CARTESIAN_POINT('',(9.951325138359,-1.938837696102,1.331557892294
));
#199 = CARTESIAN_POINT('',(9.868281242423,-1.961704784431,1.29532591515)
);
#200 = CARTESIAN_POINT('',(9.794136257088,-1.999849878978,1.269822605319
));
#201 = ORIENTED_EDGE('',*,*,#202,.T.);
#202 = EDGE_CURVE('',#182,#180,#203,.T.);
#203 = B_SPLINE_CURVE_WITH_KNOTS('',6,(#204,#205,#206,#207,#208,#209,
#210,#211,#212,#213,#214,#215,#216,#217,#218,#219,#220,#221,#222,
#223,#224,#225,#226,#227,#228,#229,#230,#231,#232,#233,#234,#235,
#236,#237,#238,#239,#240,#241,#242,#243,#244,#245),.UNSPECIFIED.,.F.
,.F.,(7,5,5,5,5,5,5,5,7),(0.E+000,0.124065558288,0.23290784553,
0.287923020246,0.455709186502,0.609997765711,0.743346554549,
0.873337741315,1.),.UNSPECIFIED.);
#204 = CARTESIAN_POINT('',(9.794136257088,-1.999849878978,1.269822605319
));
#205 = CARTESIAN_POINT('',(9.756924068047,-2.018994295324,1.257022899684
));
#206 = CARTESIAN_POINT('',(9.721868027784,-2.042280845963,1.246993154784
));
#207 = CARTESIAN_POINT('',(9.689605714272,-2.069372896244,1.240055962237
));
#208 = CARTESIAN_POINT('',(9.660695132686,-2.099774530502,1.236472589933
));
#209 = CARTESIAN_POINT('',(9.635563464543,-2.132864759535,1.236385861005
));
#210 = CARTESIAN_POINT('',(9.595938150171,-2.198695858872,1.242725813998
));
#211 = CARTESIAN_POINT('',(9.580511388721,-2.2309919284,1.248355522468)
);
#212 = CARTESIAN_POINT('',(9.568343001644,-2.264345940034,1.256633845028
));
#213 = CARTESIAN_POINT('',(9.559465256115,-2.29828266445,1.267444820486)
);
#214 = CARTESIAN_POINT('',(9.553812995061,-2.332379750969,1.280602286596
));
#215 = CARTESIAN_POINT('',(9.549977954227,-2.383406819786,1.30360627372)
);
#216 = CARTESIAN_POINT('',(9.54948346348,-2.400489092114,1.311872975935)
);
#217 = CARTESIAN_POINT('',(9.5497666262,-2.417475923426,1.320654744662)
);
#218 = CARTESIAN_POINT('',(9.550808789806,-2.434326627846,1.329921744415
));
#219 = CARTESIAN_POINT('',(9.552589533445,-2.45100494198,1.339643287239)
);
#220 = CARTESIAN_POINT('',(9.5627081908,-2.517720908846,1.38073063966));
#221 = CARTESIAN_POINT('',(9.577001422452,-2.566037559532,1.415601338783
));
#222 = CARTESIAN_POINT('',(9.597371566729,-2.611565704163,1.453552706771
));
#223 = CARTESIAN_POINT('',(9.623219174699,-2.653704401471,1.493714827114
));
#224 = CARTESIAN_POINT('',(9.654084105127,-2.691983228536,1.535276367419
));
#225 = CARTESIAN_POINT('',(9.722349655447,-2.757001173592,1.616102154452
));
#226 = CARTESIAN_POINT('',(9.758980262831,-2.784378752201,1.655229900921
));
#227 = CARTESIAN_POINT('',(9.799322225616,-2.807624272507,1.694155378781
));
#228 = CARTESIAN_POINT('',(9.843163098528,-2.826164576697,1.732098292894
));
#229 = CARTESIAN_POINT('',(9.89013228602,-2.839214986586,1.767966782345)
);
#230 = CARTESIAN_POINT('',(9.98214284073,-2.851701423792,1.828661942441)
);
#231 = CARTESIAN_POINT('',(10.02670866037,-2.852762458953,1.854411331337
));
#232 = CARTESIAN_POINT('',(10.072064912727,-2.848398372123,1.87651248053
));
#233 = CARTESIAN_POINT('',(10.116954623787,-2.838384072897,
1.894038998497));
#234 = CARTESIAN_POINT('',(10.160181434026,-2.82296641771,1.906687088776
));
#235 = CARTESIAN_POINT('',(10.240370394682,-2.782986147703,
1.922258641773));
#236 = CARTESIAN_POINT('',(10.277476507945,-2.758656755183,
1.925421915583));
#237 = CARTESIAN_POINT('',(10.311236860445,-2.730248180119,1.92416644503
));
#238 = CARTESIAN_POINT('',(10.341072309405,-2.698511184236,
1.918987739369));
#239 = CARTESIAN_POINT('',(10.366694631291,-2.664197311352,
1.910446168117));
#240 = CARTESIAN_POINT('',(10.408718815172,-2.592678103472,1.8879355469)
);
#241 = CARTESIAN_POINT('',(10.425341331426,-2.555567233604,
1.874110458049));
#242 = CARTESIAN_POINT('',(10.437747328568,-2.517231812252,
1.858027584714));
#243 = CARTESIAN_POINT('',(10.445945044024,-2.478215006226,1.84009110007
));
#244 = CARTESIAN_POINT('',(10.45,-2.438995063951,1.8206172229));
#245 = CARTESIAN_POINT('',(10.45,-2.4,1.799854128888));
#246 = TOROIDAL_SURFACE('',#247,8.018292682927,2.731707317073);
#247 = AXIS2_PLACEMENT_3D('',#248,#249,#250);
#248 = CARTESIAN_POINT('',(5.,-1.268292682927,10.78));
#249 = DIRECTION('',(1.137711779659E-033,-1.,-3.413135338977E-033));
#250 = DIRECTION('',(1.,1.137711779659E-033,8.67319700432E-034));
#251 = ADVANCED_FACE('',(#252),#255,.F.);
#252 = FACE_BOUND('',#253,.F.);
#253 = EDGE_LOOP('',(#254));
#254 = ORIENTED_EDGE('',*,*,#64,.T.);
#255 = PLANE('',#256);
#256 = AXIS2_PLACEMENT_3D('',#257,#258,#259);
#257 = CARTESIAN_POINT('',(5.,1.6,10.78));
#258 = DIRECTION('',(1.137711779659E-033,-1.,-3.413135338977E-033));
#259 = DIRECTION('',(0.E+000,3.413135338977E-033,-1.));
#260 = ADVANCED_FACE('',(#261),#281,.T.);
#261 = FACE_BOUND('',#262,.T.);
#262 = EDGE_LOOP('',(#263,#264,#272,#279,#280));
#263 = ORIENTED_EDGE('',*,*,#104,.T.);
#264 = ORIENTED_EDGE('',*,*,#265,.T.);
#265 = EDGE_CURVE('',#75,#266,#268,.T.);
#266 = VERTEX_POINT('',#267);
#267 = CARTESIAN_POINT('',(0.45,0.E+000,-2.82));
#268 = LINE('',#269,#270);
#269 = CARTESIAN_POINT('',(0.45,0.E+000,10.78));
#270 = VECTOR('',#271,1.);
#271 = DIRECTION('',(-0.E+000,-0.E+000,-1.));
#272 = ORIENTED_EDGE('',*,*,#273,.T.);
#273 = EDGE_CURVE('',#266,#266,#274,.T.);
#274 = CIRCLE('',#275,0.45);
#275 = AXIS2_PLACEMENT_3D('',#276,#277,#278);
#276 = CARTESIAN_POINT('',(0.E+000,0.E+000,-2.82));
#277 = DIRECTION('',(0.E+000,0.E+000,1.));
#278 = DIRECTION('',(1.,0.E+000,0.E+000));
#279 = ORIENTED_EDGE('',*,*,#265,.F.);
#280 = ORIENTED_EDGE('',*,*,#74,.T.);
#281 = CYLINDRICAL_SURFACE('',#282,0.45);
#282 = AXIS2_PLACEMENT_3D('',#283,#284,#285);
#283 = CARTESIAN_POINT('',(0.E+000,0.E+000,10.78));
#284 = DIRECTION('',(0.E+000,0.E+000,1.));
#285 = DIRECTION('',(1.,0.E+000,0.E+000));
#286 = ADVANCED_FACE('',(#287),#290,.T.);
#287 = FACE_BOUND('',#288,.T.);
#288 = EDGE_LOOP('',(#289));
#289 = ORIENTED_EDGE('',*,*,#169,.T.);
#290 = PLANE('',#291);
#291 = AXIS2_PLACEMENT_3D('',#292,#293,#294);
#292 = CARTESIAN_POINT('',(5.,-4.,10.78));
#293 = DIRECTION('',(1.137711779659E-033,-1.,-3.413135338977E-033));
#294 = DIRECTION('',(0.E+000,3.413135338977E-033,-1.));
#295 = ADVANCED_FACE('',(#296),#316,.T.);
#296 = FACE_BOUND('',#297,.T.);
#297 = EDGE_LOOP('',(#298,#299,#307,#314,#315));
#298 = ORIENTED_EDGE('',*,*,#179,.F.);
#299 = ORIENTED_EDGE('',*,*,#300,.T.);
#300 = EDGE_CURVE('',#180,#301,#303,.T.);
#301 = VERTEX_POINT('',#302);
#302 = CARTESIAN_POINT('',(10.45,-2.4,-2.82));
#303 = LINE('',#304,#305);
#304 = CARTESIAN_POINT('',(10.45,-2.4,10.78));
#305 = VECTOR('',#306,1.);
#306 = DIRECTION('',(-0.E+000,-0.E+000,-1.));
#307 = ORIENTED_EDGE('',*,*,#308,.T.);
#308 = EDGE_CURVE('',#301,#301,#309,.T.);
#309 = CIRCLE('',#310,0.45);
#310 = AXIS2_PLACEMENT_3D('',#311,#312,#313);
#311 = CARTESIAN_POINT('',(10.,-2.4,-2.82));
#312 = DIRECTION('',(0.E+000,0.E+000,1.));
#313 = DIRECTION('',(1.,0.E+000,0.E+000));
#314 = ORIENTED_EDGE('',*,*,#300,.F.);
#315 = ORIENTED_EDGE('',*,*,#202,.F.);
#316 = CYLINDRICAL_SURFACE('',#317,0.45);
#317 = AXIS2_PLACEMENT_3D('',#318,#319,#320);
#318 = CARTESIAN_POINT('',(10.,-2.4,10.78));
#319 = DIRECTION('',(0.E+000,0.E+000,1.));
#320 = DIRECTION('',(1.,0.E+000,0.E+000));
#321 = ADVANCED_FACE('',(#322),#342,.T.);
#322 = FACE_BOUND('',#323,.F.);
#323 = EDGE_LOOP('',(#324,#333,#334,#335));
#324 = ORIENTED_EDGE('',*,*,#325,.F.);
#325 = EDGE_CURVE('',#266,#326,#328,.T.);
#326 = VERTEX_POINT('',#327);
#327 = CARTESIAN_POINT('',(0.27,0.E+000,-3.));
#328 = CIRCLE('',#329,0.18);
#329 = AXIS2_PLACEMENT_3D('',#330,#331,#332);
#330 = CARTESIAN_POINT('',(0.27,0.E+000,-2.82));
#331 = DIRECTION('',(-0.E+000,1.,0.E+000));
#332 = DIRECTION('',(1.,0.E+000,0.E+000));
#333 = ORIENTED_EDGE('',*,*,#273,.T.);
#334 = ORIENTED_EDGE('',*,*,#325,.T.);
#335 = ORIENTED_EDGE('',*,*,#336,.F.);
#336 = EDGE_CURVE('',#326,#326,#337,.T.);
#337 = CIRCLE('',#338,0.27);
#338 = AXIS2_PLACEMENT_3D('',#339,#340,#341);
#339 = CARTESIAN_POINT('',(0.E+000,0.E+000,-3.));
#340 = DIRECTION('',(0.E+000,0.E+000,1.));
#341 = DIRECTION('',(1.,0.E+000,0.E+000));
#342 = TOROIDAL_SURFACE('',#343,0.27,0.18);
#343 = AXIS2_PLACEMENT_3D('',#344,#345,#346);
#344 = CARTESIAN_POINT('',(0.E+000,0.E+000,-2.82));
#345 = DIRECTION('',(-0.E+000,-0.E+000,-1.));
#346 = DIRECTION('',(1.,0.E+000,0.E+000));
#347 = ADVANCED_FACE('',(#348),#368,.T.);
#348 = FACE_BOUND('',#349,.F.);
#349 = EDGE_LOOP('',(#350,#359,#360,#361));
#350 = ORIENTED_EDGE('',*,*,#351,.F.);
#351 = EDGE_CURVE('',#301,#352,#354,.T.);
#352 = VERTEX_POINT('',#353);
#353 = CARTESIAN_POINT('',(10.27,-2.4,-3.));
#354 = CIRCLE('',#355,0.18);
#355 = AXIS2_PLACEMENT_3D('',#356,#357,#358);
#356 = CARTESIAN_POINT('',(10.27,-2.4,-2.82));
#357 = DIRECTION('',(-0.E+000,1.,0.E+000));
#358 = DIRECTION('',(1.,0.E+000,0.E+000));
#359 = ORIENTED_EDGE('',*,*,#308,.T.);
#360 = ORIENTED_EDGE('',*,*,#351,.T.);
#361 = ORIENTED_EDGE('',*,*,#362,.F.);
#362 = EDGE_CURVE('',#352,#352,#363,.T.);
#363 = CIRCLE('',#364,0.27);
#364 = AXIS2_PLACEMENT_3D('',#365,#366,#367);
#365 = CARTESIAN_POINT('',(10.,-2.4,-3.));
#366 = DIRECTION('',(0.E+000,0.E+000,1.));
#367 = DIRECTION('',(1.,0.E+000,0.E+000));
#368 = TOROIDAL_SURFACE('',#369,0.27,0.18);
#369 = AXIS2_PLACEMENT_3D('',#370,#371,#372);
#370 = CARTESIAN_POINT('',(10.,-2.4,-2.82));
#371 = DIRECTION('',(-0.E+000,-0.E+000,-1.));
#372 = DIRECTION('',(1.,0.E+000,0.E+000));
#373 = ADVANCED_FACE('',(#374),#377,.F.);
#374 = FACE_BOUND('',#375,.F.);
#375 = EDGE_LOOP('',(#376));
#376 = ORIENTED_EDGE('',*,*,#336,.T.);
#377 = PLANE('',#378);
#378 = AXIS2_PLACEMENT_3D('',#379,#380,#381);
#379 = CARTESIAN_POINT('',(-1.18701400394E-017,2.911085817041E-017,-3.)
);
#380 = DIRECTION('',(0.E+000,0.E+000,1.));
#381 = DIRECTION('',(1.,0.E+000,0.E+000));
#382 = ADVANCED_FACE('',(#383),#386,.F.);
#383 = FACE_BOUND('',#384,.F.);
#384 = EDGE_LOOP('',(#385));
#385 = ORIENTED_EDGE('',*,*,#362,.T.);
#386 = PLANE('',#387);
#387 = AXIS2_PLACEMENT_3D('',#388,#389,#390);
#388 = CARTESIAN_POINT('',(10.,-2.4,-3.));
#389 = DIRECTION('',(0.E+000,0.E+000,1.));
#390 = DIRECTION('',(1.,0.E+000,0.E+000));
#391 = ( GEOMETRIC_REPRESENTATION_CONTEXT(3)
GLOBAL_UNCERTAINTY_ASSIGNED_CONTEXT((#395)) GLOBAL_UNIT_ASSIGNED_CONTEXT
((#392,#393,#394)) REPRESENTATION_CONTEXT('Context #1',
'3D Context with UNIT and UNCERTAINTY') );
#392 = ( LENGTH_UNIT() NAMED_UNIT(*) SI_UNIT(.MILLI.,.METRE.) );
#393 = ( NAMED_UNIT(*) PLANE_ANGLE_UNIT() SI_UNIT($,.RADIAN.) );
#394 = ( NAMED_UNIT(*) SI_UNIT($,.STERADIAN.) SOLID_ANGLE_UNIT() );
#395 = UNCERTAINTY_MEASURE_WITH_UNIT(LENGTH_MEASURE(1.E-007),#392,
'distance_accuracy_value','confusion accuracy');
#396 = PRODUCT_RELATED_PRODUCT_CATEGORY('part',$,(#7));
#397 = MECHANICAL_DESIGN_GEOMETRIC_PRESENTATION_REPRESENTATION('',(#398,
#406,#413,#420,#427,#435,#442,#449,#456,#463,#470),#391);
#398 = STYLED_ITEM('color',(#399),#17);
#399 = PRESENTATION_STYLE_ASSIGNMENT((#400));
#400 = SURFACE_STYLE_USAGE(.BOTH.,#401);
#401 = SURFACE_SIDE_STYLE('',(#402));
#402 = SURFACE_STYLE_FILL_AREA(#403);
#403 = FILL_AREA_STYLE('',(#404));
#404 = FILL_AREA_STYLE_COLOUR('',#405);
#405 = COLOUR_RGB('',0.136999994516,0.402000010014,0.726999998093);
#406 = STYLED_ITEM('color',(#407),#50);
#407 = PRESENTATION_STYLE_ASSIGNMENT((#408));
#408 = SURFACE_STYLE_USAGE(.BOTH.,#409);
#409 = SURFACE_SIDE_STYLE('',(#410));
#410 = SURFACE_STYLE_FILL_AREA(#411);
#411 = FILL_AREA_STYLE('',(#412));
#412 = FILL_AREA_STYLE_COLOUR('',#405);
#413 = STYLED_ITEM('color',(#414),#155);
#414 = PRESENTATION_STYLE_ASSIGNMENT((#415));
#415 = SURFACE_STYLE_USAGE(.BOTH.,#416);
#416 = SURFACE_SIDE_STYLE('',(#417));
#417 = SURFACE_STYLE_FILL_AREA(#418);
#418 = FILL_AREA_STYLE('',(#419));
#419 = FILL_AREA_STYLE_COLOUR('',#405);
#420 = STYLED_ITEM('color',(#421),#251);
#421 = PRESENTATION_STYLE_ASSIGNMENT((#422));
#422 = SURFACE_STYLE_USAGE(.BOTH.,#423);
#423 = SURFACE_SIDE_STYLE('',(#424));
#424 = SURFACE_STYLE_FILL_AREA(#425);
#425 = FILL_AREA_STYLE('',(#426));
#426 = FILL_AREA_STYLE_COLOUR('',#405);
#427 = STYLED_ITEM('color',(#428),#260);
#428 = PRESENTATION_STYLE_ASSIGNMENT((#429));
#429 = SURFACE_STYLE_USAGE(.BOTH.,#430);
#430 = SURFACE_SIDE_STYLE('',(#431));
#431 = SURFACE_STYLE_FILL_AREA(#432);
#432 = FILL_AREA_STYLE('',(#433));
#433 = FILL_AREA_STYLE_COLOUR('',#434);
#434 = COLOUR_RGB('',0.824000000954,0.819999992847,0.78100001812);
#435 = STYLED_ITEM('color',(#436),#286);
#436 = PRESENTATION_STYLE_ASSIGNMENT((#437));
#437 = SURFACE_STYLE_USAGE(.BOTH.,#438);
#438 = SURFACE_SIDE_STYLE('',(#439));
#439 = SURFACE_STYLE_FILL_AREA(#440);
#440 = FILL_AREA_STYLE('',(#441));
#441 = FILL_AREA_STYLE_COLOUR('',#405);
#442 = STYLED_ITEM('color',(#443),#295);
#443 = PRESENTATION_STYLE_ASSIGNMENT((#444));
#444 = SURFACE_STYLE_USAGE(.BOTH.,#445);
#445 = SURFACE_SIDE_STYLE('',(#446));
#446 = SURFACE_STYLE_FILL_AREA(#447);
#447 = FILL_AREA_STYLE('',(#448));
#448 = FILL_AREA_STYLE_COLOUR('',#434);
#449 = STYLED_ITEM('color',(#450),#321);
#450 = PRESENTATION_STYLE_ASSIGNMENT((#451));
#451 = SURFACE_STYLE_USAGE(.BOTH.,#452);
#452 = SURFACE_SIDE_STYLE('',(#453));
#453 = SURFACE_STYLE_FILL_AREA(#454);
#454 = FILL_AREA_STYLE('',(#455));
#455 = FILL_AREA_STYLE_COLOUR('',#434);
#456 = STYLED_ITEM('color',(#457),#347);
#457 = PRESENTATION_STYLE_ASSIGNMENT((#458));
#458 = SURFACE_STYLE_USAGE(.BOTH.,#459);
#459 = SURFACE_SIDE_STYLE('',(#460));
#460 = SURFACE_STYLE_FILL_AREA(#461);
#461 = FILL_AREA_STYLE('',(#462));
#462 = FILL_AREA_STYLE_COLOUR('',#434);
#463 = STYLED_ITEM('color',(#464),#373);
#464 = PRESENTATION_STYLE_ASSIGNMENT((#465));
#465 = SURFACE_STYLE_USAGE(.BOTH.,#466);
#466 = SURFACE_SIDE_STYLE('',(#467));
#467 = SURFACE_STYLE_FILL_AREA(#468);
#468 = FILL_AREA_STYLE('',(#469));
#469 = FILL_AREA_STYLE_COLOUR('',#434);
#470 = STYLED_ITEM('color',(#471),#382);
#471 = PRESENTATION_STYLE_ASSIGNMENT((#472));
#472 = SURFACE_STYLE_USAGE(.BOTH.,#473);
#473 = SURFACE_SIDE_STYLE('',(#474));
#474 = SURFACE_STYLE_FILL_AREA(#475);
#475 = FILL_AREA_STYLE('',(#476));
#476 = FILL_AREA_STYLE_COLOUR('',#434);
ENDSEC;
END-ISO-10303-21;
