ISO-10303-21;
HEADER;
FILE_DESCRIPTION(('FreeCAD Model'),'2;1');
FILE_NAME(
'D:/KiCAD/packages3D-source/Connectors.3dshapes\\
TestPoint_Bridge_Pitch2.0mm_Drill0.7mm.step','2017-09-16T22:16:53',(
    'kicad StepUp'),('ksu MCAD'),'Open CASCADE STEP processor 7.1',
  'FreeCAD','Unknown');
FILE_SCHEMA(('AUTOMOTIVE_DESIGN { 1 0 10303 214 1 1 1 1 }'));
ENDSEC;
DATA;
#1 = APPLICATION_PROTOCOL_DEFINITION('international standard',
  'automotive_design',2000,#2);
#2 = APPLICATION_CONTEXT(
  'core data for automotive mechanical design processes');
#3 = SHAPE_DEFINITION_REPRESENTATION(#4,#10);
#4 = PRODUCT_DEFINITION_SHAPE('','',#5);
#5 = PRODUCT_DEFINITION('design','',#6,#9);
#6 = PRODUCT_DEFINITION_FORMATION('','',#7);
#7 = PRODUCT('TestPoint_Bridge_Pitch2.0mm_Drill0.7mm',
  'TestPoint_Bridge_Pitch2.0mm_Drill0.7mm','',(#8));
#8 = PRODUCT_CONTEXT('',#2,'mechanical');
#9 = PRODUCT_DEFINITION_CONTEXT('part definition',#2,'design');
#10 = ADVANCED_BREP_SHAPE_REPRESENTATION('',(#11,#15),#119);
#11 = AXIS2_PLACEMENT_3D('',#12,#13,#14);
#12 = CARTESIAN_POINT('',(0.E+000,0.E+000,0.E+000));
#13 = DIRECTION('',(0.E+000,0.E+000,1.));
#14 = DIRECTION('',(1.,0.E+000,-0.E+000));
#15 = MANIFOLD_SOLID_BREP('',#16);
#16 = CLOSED_SHELL('',(#17,#34,#59,#85,#110));
#17 = ADVANCED_FACE('',(#18),#29,.F.);
#18 = FACE_BOUND('',#19,.F.);
#19 = EDGE_LOOP('',(#20));
#20 = ORIENTED_EDGE('',*,*,#21,.T.);
#21 = EDGE_CURVE('',#22,#22,#24,.T.);
#22 = VERTEX_POINT('',#23);
#23 = CARTESIAN_POINT('',(0.25,0.E+000,-3.));
#24 = CIRCLE('',#25,0.25);
#25 = AXIS2_PLACEMENT_3D('',#26,#27,#28);
#26 = CARTESIAN_POINT('',(0.E+000,0.E+000,-3.));
#27 = DIRECTION('',(0.E+000,0.E+000,1.));
#28 = DIRECTION('',(1.,0.E+000,0.E+000));
#29 = PLANE('',#30);
#30 = AXIS2_PLACEMENT_3D('',#31,#32,#33);
#31 = CARTESIAN_POINT('',(-2.E-017,2.E-017,-3.));
#32 = DIRECTION('',(0.E+000,0.E+000,1.));
#33 = DIRECTION('',(1.,0.E+000,0.E+000));
#34 = ADVANCED_FACE('',(#35),#54,.T.);
#35 = FACE_BOUND('',#36,.T.);
#36 = EDGE_LOOP('',(#37,#45,#52,#53));
#37 = ORIENTED_EDGE('',*,*,#38,.T.);
#38 = EDGE_CURVE('',#22,#39,#41,.T.);
#39 = VERTEX_POINT('',#40);
#40 = CARTESIAN_POINT('',(0.25,1.E-015,0.25));
#41 = LINE('',#42,#43);
#42 = CARTESIAN_POINT('',(0.25,0.E+000,-3.));
#43 = VECTOR('',#44,1.);
#44 = DIRECTION('',(0.E+000,2.2E-016,1.));
#45 = ORIENTED_EDGE('',*,*,#46,.F.);
#46 = EDGE_CURVE('',#39,#39,#47,.T.);
#47 = CIRCLE('',#48,0.25);
#48 = AXIS2_PLACEMENT_3D('',#49,#50,#51);
#49 = CARTESIAN_POINT('',(0.E+000,7.2E-016,0.25));
#50 = DIRECTION('',(-0.E+000,2.2E-016,1.));
#51 = DIRECTION('',(1.,0.E+000,0.E+000));
#52 = ORIENTED_EDGE('',*,*,#38,.F.);
#53 = ORIENTED_EDGE('',*,*,#21,.T.);
#54 = CYLINDRICAL_SURFACE('',#55,0.25);
#55 = AXIS2_PLACEMENT_3D('',#56,#57,#58);
#56 = CARTESIAN_POINT('',(0.E+000,0.E+000,-3.));
#57 = DIRECTION('',(0.E+000,2.2E-016,1.));
#58 = DIRECTION('',(1.,0.E+000,0.E+000));
#59 = ADVANCED_FACE('',(#60),#80,.T.);
#60 = FACE_BOUND('',#61,.T.);
#61 = EDGE_LOOP('',(#62,#71,#78,#79));
#62 = ORIENTED_EDGE('',*,*,#63,.T.);
#63 = EDGE_CURVE('',#39,#64,#66,.T.);
#64 = VERTEX_POINT('',#65);
#65 = CARTESIAN_POINT('',(1.75,1.E-015,0.25));
#66 = CIRCLE('',#67,0.75);
#67 = AXIS2_PLACEMENT_3D('',#68,#69,#70);
#68 = CARTESIAN_POINT('',(1.,-5.07E-014,0.25));
#69 = DIRECTION('',(0.E+000,1.,-2.2E-016));
#70 = DIRECTION('',(1.,0.E+000,0.E+000));
#71 = ORIENTED_EDGE('',*,*,#72,.T.);
#72 = EDGE_CURVE('',#64,#64,#73,.T.);
#73 = CIRCLE('',#74,0.25);
#74 = AXIS2_PLACEMENT_3D('',#75,#76,#77);
#75 = CARTESIAN_POINT('',(2.,7.2E-016,0.25));
#76 = DIRECTION('',(-2.4E-016,2.2E-016,1.));
#77 = DIRECTION('',(1.,0.E+000,2.4E-016));
#78 = ORIENTED_EDGE('',*,*,#63,.F.);
#79 = ORIENTED_EDGE('',*,*,#46,.T.);
#80 = TOROIDAL_SURFACE('',#81,1.,0.25);
#81 = AXIS2_PLACEMENT_3D('',#82,#83,#84);
#82 = CARTESIAN_POINT('',(1.,7.2E-016,0.25));
#83 = DIRECTION('',(0.E+000,1.,-2.2E-016));
#84 = DIRECTION('',(1.,0.E+000,0.E+000));
#85 = ADVANCED_FACE('',(#86),#105,.T.);
#86 = FACE_BOUND('',#87,.T.);
#87 = EDGE_LOOP('',(#88,#96,#103,#104));
#88 = ORIENTED_EDGE('',*,*,#89,.T.);
#89 = EDGE_CURVE('',#64,#90,#92,.T.);
#90 = VERTEX_POINT('',#91);
#91 = CARTESIAN_POINT('',(1.75,0.E+000,-3.));
#92 = LINE('',#93,#94);
#93 = CARTESIAN_POINT('',(1.75,7.2E-016,0.25));
#94 = VECTOR('',#95,1.);
#95 = DIRECTION('',(0.E+000,-2.2E-016,-1.));
#96 = ORIENTED_EDGE('',*,*,#97,.F.);
#97 = EDGE_CURVE('',#90,#90,#98,.T.);
#98 = CIRCLE('',#99,0.25);
#99 = AXIS2_PLACEMENT_3D('',#100,#101,#102);
#100 = CARTESIAN_POINT('',(2.,0.E+000,-3.));
#101 = DIRECTION('',(-2.0682E-013,-4.4E-016,-1.));
#102 = DIRECTION('',(-1.,0.E+000,2.0682E-013));
#103 = ORIENTED_EDGE('',*,*,#89,.F.);
#104 = ORIENTED_EDGE('',*,*,#72,.F.);
#105 = CYLINDRICAL_SURFACE('',#106,0.25);
#106 = AXIS2_PLACEMENT_3D('',#107,#108,#109);
#107 = CARTESIAN_POINT('',(2.,7.2E-016,0.25));
#108 = DIRECTION('',(0.E+000,-2.2E-016,-1.));
#109 = DIRECTION('',(-1.,0.E+000,0.E+000));
#110 = ADVANCED_FACE('',(#111),#114,.T.);
#111 = FACE_BOUND('',#112,.T.);
#112 = EDGE_LOOP('',(#113));
#113 = ORIENTED_EDGE('',*,*,#97,.T.);
#114 = PLANE('',#115);
#115 = AXIS2_PLACEMENT_3D('',#116,#117,#118);
#116 = CARTESIAN_POINT('',(2.,2.E-017,-3.));
#117 = DIRECTION('',(-2.0606E-013,0.E+000,-1.));
#118 = DIRECTION('',(-1.,0.E+000,2.0606E-013));
#119 = ( GEOMETRIC_REPRESENTATION_CONTEXT(3) 
GLOBAL_UNCERTAINTY_ASSIGNED_CONTEXT((#123)) GLOBAL_UNIT_ASSIGNED_CONTEXT
((#120,#121,#122)) REPRESENTATION_CONTEXT('Context #1',
  '3D Context with UNIT and UNCERTAINTY') );
#120 = ( LENGTH_UNIT() NAMED_UNIT(*) SI_UNIT(.MILLI.,.METRE.) );
#121 = ( NAMED_UNIT(*) PLANE_ANGLE_UNIT() SI_UNIT($,.RADIAN.) );
#122 = ( NAMED_UNIT(*) SI_UNIT($,.STERADIAN.) SOLID_ANGLE_UNIT() );
#123 = UNCERTAINTY_MEASURE_WITH_UNIT(LENGTH_MEASURE(1.E-007),#120,
  'distance_accuracy_value','confusion accuracy');
#124 = PRODUCT_RELATED_PRODUCT_CATEGORY('part',$,(#7));
#125 = MECHANICAL_DESIGN_GEOMETRIC_PRESENTATION_REPRESENTATION('',(#126)
  ,#119);
#126 = STYLED_ITEM('color',(#127),#15);
#127 = PRESENTATION_STYLE_ASSIGNMENT((#128,#134));
#128 = SURFACE_STYLE_USAGE(.BOTH.,#129);
#129 = SURFACE_SIDE_STYLE('',(#130));
#130 = SURFACE_STYLE_FILL_AREA(#131);
#131 = FILL_AREA_STYLE('',(#132));
#132 = FILL_AREA_STYLE_COLOUR('',#133);
#133 = COLOUR_RGB('',0.507539987564,0.507539987564,0.507539987564);
#134 = CURVE_STYLE('',#135,POSITIVE_LENGTH_MEASURE(0.1),#133);
#135 = DRAUGHTING_PRE_DEFINED_CURVE_FONT('continuous');
ENDSEC;
END-ISO-10303-21;
