ISO-10303-21;
HEADER;
FILE_DESCRIPTION(('FreeCAD Model'),'2;1');
FILE_NAME(
'D:/KiCAD/packages3D-source/LED_THT.3dshapes\\
LED_D1.8mm_W3.3mm_H2.4mm.step','2017-11-25T21:36:36',('kicad StepUp'),(
    'ksu MCAD'),'Open CASCADE STEP processor 6.8','FreeCAD','Unknown');
FILE_SCHEMA(('AUTOMOTIVE_DESIGN_CC2 { 1 2 10303 214 -1 1 5 4 }'));
ENDSEC;
DATA;
#1 = APPLICATION_PROTOCOL_DEFINITION('committee draft',
  'automotive_design',1997,#2);
#2 = APPLICATION_CONTEXT(
  'core data for automotive mechanical design processes');
#3 = SHAPE_DEFINITION_REPRESENTATION(#4,#10);
#4 = PRODUCT_DEFINITION_SHAPE('','',#5);
#5 = PRODUCT_DEFINITION('design','',#6,#9);
#6 = PRODUCT_DEFINITION_FORMATION('','',#7);
#7 = PRODUCT('LED_D1.8mm_W3.3mm_H2.4mm','LED_D1.8mm_W3.3mm_H2.4mm','',(
    #8));
#8 = MECHANICAL_CONTEXT('',#2,'mechanical');
#9 = PRODUCT_DEFINITION_CONTEXT('part definition',#2,'design');
#10 = ADVANCED_BREP_SHAPE_REPRESENTATION('',(#11,#15),#530);
#11 = AXIS2_PLACEMENT_3D('',#12,#13,#14);
#12 = CARTESIAN_POINT('',(0.E+000,0.E+000,0.E+000));
#13 = DIRECTION('',(0.E+000,0.E+000,1.));
#14 = DIRECTION('',(1.,0.E+000,-0.E+000));
#15 = MANIFOLD_SOLID_BREP('',#16);
#16 = CLOSED_SHELL('',(#17,#57,#88,#119,#204,#232,#244,#275,#299,#323,
    #340,#371,#395,#419,#436,#461,#473,#485,#521));
#17 = ADVANCED_FACE('',(#18),#52,.F.);
#18 = FACE_BOUND('',#19,.F.);
#19 = EDGE_LOOP('',(#20,#30,#38,#46));
#20 = ORIENTED_EDGE('',*,*,#21,.T.);
#21 = EDGE_CURVE('',#22,#24,#26,.T.);
#22 = VERTEX_POINT('',#23);
#23 = CARTESIAN_POINT('',(2.92,1.2,3.));
#24 = VERTEX_POINT('',#25);
#25 = CARTESIAN_POINT('',(2.92,1.2,4.6));
#26 = LINE('',#27,#28);
#27 = CARTESIAN_POINT('',(2.92,1.2,3.));
#28 = VECTOR('',#29,1.);
#29 = DIRECTION('',(0.E+000,0.E+000,1.));
#30 = ORIENTED_EDGE('',*,*,#31,.T.);
#31 = EDGE_CURVE('',#24,#32,#34,.T.);
#32 = VERTEX_POINT('',#33);
#33 = CARTESIAN_POINT('',(-0.38,1.2,4.6));
#34 = LINE('',#35,#36);
#35 = CARTESIAN_POINT('',(2.92,1.2,4.6));
#36 = VECTOR('',#37,1.);
#37 = DIRECTION('',(-1.,0.E+000,0.E+000));
#38 = ORIENTED_EDGE('',*,*,#39,.F.);
#39 = EDGE_CURVE('',#40,#32,#42,.T.);
#40 = VERTEX_POINT('',#41);
#41 = CARTESIAN_POINT('',(-0.38,1.2,3.));
#42 = LINE('',#43,#44);
#43 = CARTESIAN_POINT('',(-0.38,1.2,3.));
#44 = VECTOR('',#45,1.);
#45 = DIRECTION('',(0.E+000,0.E+000,1.));
#46 = ORIENTED_EDGE('',*,*,#47,.F.);
#47 = EDGE_CURVE('',#22,#40,#48,.T.);
#48 = LINE('',#49,#50);
#49 = CARTESIAN_POINT('',(2.92,1.2,3.));
#50 = VECTOR('',#51,1.);
#51 = DIRECTION('',(-1.,0.E+000,0.E+000));
#52 = PLANE('',#53);
#53 = AXIS2_PLACEMENT_3D('',#54,#55,#56);
#54 = CARTESIAN_POINT('',(2.92,1.2,3.));
#55 = DIRECTION('',(0.E+000,-1.,0.E+000));
#56 = DIRECTION('',(-1.,0.E+000,0.E+000));
#57 = ADVANCED_FACE('',(#58),#83,.T.);
#58 = FACE_BOUND('',#59,.T.);
#59 = EDGE_LOOP('',(#60,#61,#69,#77));
#60 = ORIENTED_EDGE('',*,*,#21,.T.);
#61 = ORIENTED_EDGE('',*,*,#62,.T.);
#62 = EDGE_CURVE('',#24,#63,#65,.T.);
#63 = VERTEX_POINT('',#64);
#64 = CARTESIAN_POINT('',(2.92,-1.2,4.6));
#65 = LINE('',#66,#67);
#66 = CARTESIAN_POINT('',(2.92,1.2,4.6));
#67 = VECTOR('',#68,1.);
#68 = DIRECTION('',(0.E+000,-1.,0.E+000));
#69 = ORIENTED_EDGE('',*,*,#70,.F.);
#70 = EDGE_CURVE('',#71,#63,#73,.T.);
#71 = VERTEX_POINT('',#72);
#72 = CARTESIAN_POINT('',(2.92,-1.2,3.));
#73 = LINE('',#74,#75);
#74 = CARTESIAN_POINT('',(2.92,-1.2,3.));
#75 = VECTOR('',#76,1.);
#76 = DIRECTION('',(0.E+000,0.E+000,1.));
#77 = ORIENTED_EDGE('',*,*,#78,.F.);
#78 = EDGE_CURVE('',#22,#71,#79,.T.);
#79 = LINE('',#80,#81);
#80 = CARTESIAN_POINT('',(2.92,1.2,3.));
#81 = VECTOR('',#82,1.);
#82 = DIRECTION('',(0.E+000,-1.,0.E+000));
#83 = PLANE('',#84);
#84 = AXIS2_PLACEMENT_3D('',#85,#86,#87);
#85 = CARTESIAN_POINT('',(2.92,1.2,3.));
#86 = DIRECTION('',(1.,0.E+000,0.E+000));
#87 = DIRECTION('',(0.E+000,-1.,0.E+000));
#88 = ADVANCED_FACE('',(#89),#114,.F.);
#89 = FACE_BOUND('',#90,.F.);
#90 = EDGE_LOOP('',(#91,#92,#100,#108));
#91 = ORIENTED_EDGE('',*,*,#39,.T.);
#92 = ORIENTED_EDGE('',*,*,#93,.T.);
#93 = EDGE_CURVE('',#32,#94,#96,.T.);
#94 = VERTEX_POINT('',#95);
#95 = CARTESIAN_POINT('',(-0.38,-1.2,4.6));
#96 = LINE('',#97,#98);
#97 = CARTESIAN_POINT('',(-0.38,1.2,4.6));
#98 = VECTOR('',#99,1.);
#99 = DIRECTION('',(0.E+000,-1.,0.E+000));
#100 = ORIENTED_EDGE('',*,*,#101,.F.);
#101 = EDGE_CURVE('',#102,#94,#104,.T.);
#102 = VERTEX_POINT('',#103);
#103 = CARTESIAN_POINT('',(-0.38,-1.2,3.));
#104 = LINE('',#105,#106);
#105 = CARTESIAN_POINT('',(-0.38,-1.2,3.));
#106 = VECTOR('',#107,1.);
#107 = DIRECTION('',(0.E+000,0.E+000,1.));
#108 = ORIENTED_EDGE('',*,*,#109,.F.);
#109 = EDGE_CURVE('',#40,#102,#110,.T.);
#110 = LINE('',#111,#112);
#111 = CARTESIAN_POINT('',(-0.38,1.2,3.));
#112 = VECTOR('',#113,1.);
#113 = DIRECTION('',(0.E+000,-1.,0.E+000));
#114 = PLANE('',#115);
#115 = AXIS2_PLACEMENT_3D('',#116,#117,#118);
#116 = CARTESIAN_POINT('',(-0.38,1.2,3.));
#117 = DIRECTION('',(1.,0.E+000,0.E+000));
#118 = DIRECTION('',(0.E+000,-1.,0.E+000));
#119 = ADVANCED_FACE('',(#120,#131,#165),#199,.T.);
#120 = FACE_BOUND('',#121,.T.);
#121 = EDGE_LOOP('',(#122,#123,#124,#130));
#122 = ORIENTED_EDGE('',*,*,#47,.F.);
#123 = ORIENTED_EDGE('',*,*,#78,.T.);
#124 = ORIENTED_EDGE('',*,*,#125,.F.);
#125 = EDGE_CURVE('',#102,#71,#126,.T.);
#126 = LINE('',#127,#128);
#127 = CARTESIAN_POINT('',(-0.38,-1.2,3.));
#128 = VECTOR('',#129,1.);
#129 = DIRECTION('',(1.,0.E+000,0.E+000));
#130 = ORIENTED_EDGE('',*,*,#109,.F.);
#131 = FACE_BOUND('',#132,.T.);
#132 = EDGE_LOOP('',(#133,#143,#151,#159));
#133 = ORIENTED_EDGE('',*,*,#134,.T.);
#134 = EDGE_CURVE('',#135,#137,#139,.T.);
#135 = VERTEX_POINT('',#136);
#136 = CARTESIAN_POINT('',(0.3,0.3,3.));
#137 = VERTEX_POINT('',#138);
#138 = CARTESIAN_POINT('',(-0.3,0.3,3.));
#139 = LINE('',#140,#141);
#140 = CARTESIAN_POINT('',(1.31,0.3,3.));
#141 = VECTOR('',#142,1.);
#142 = DIRECTION('',(-1.,-0.E+000,-0.E+000));
#143 = ORIENTED_EDGE('',*,*,#144,.T.);
#144 = EDGE_CURVE('',#137,#145,#147,.T.);
#145 = VERTEX_POINT('',#146);
#146 = CARTESIAN_POINT('',(-0.3,-0.3,3.));
#147 = LINE('',#148,#149);
#148 = CARTESIAN_POINT('',(-0.3,0.45,3.));
#149 = VECTOR('',#150,1.);
#150 = DIRECTION('',(0.E+000,-1.,0.E+000));
#151 = ORIENTED_EDGE('',*,*,#152,.T.);
#152 = EDGE_CURVE('',#145,#153,#155,.T.);
#153 = VERTEX_POINT('',#154);
#154 = CARTESIAN_POINT('',(0.3,-0.3,3.));
#155 = LINE('',#156,#157);
#156 = CARTESIAN_POINT('',(1.61,-0.3,3.));
#157 = VECTOR('',#158,1.);
#158 = DIRECTION('',(1.,0.E+000,0.E+000));
#159 = ORIENTED_EDGE('',*,*,#160,.T.);
#160 = EDGE_CURVE('',#153,#135,#161,.T.);
#161 = LINE('',#162,#163);
#162 = CARTESIAN_POINT('',(0.3,0.75,3.));
#163 = VECTOR('',#164,1.);
#164 = DIRECTION('',(0.E+000,1.,0.E+000));
#165 = FACE_BOUND('',#166,.T.);
#166 = EDGE_LOOP('',(#167,#177,#185,#193));
#167 = ORIENTED_EDGE('',*,*,#168,.T.);
#168 = EDGE_CURVE('',#169,#171,#173,.T.);
#169 = VERTEX_POINT('',#170);
#170 = CARTESIAN_POINT('',(2.84,0.3,3.));
#171 = VERTEX_POINT('',#172);
#172 = CARTESIAN_POINT('',(2.24,0.3,3.));
#173 = LINE('',#174,#175);
#174 = CARTESIAN_POINT('',(2.58,0.3,3.));
#175 = VECTOR('',#176,1.);
#176 = DIRECTION('',(-1.,-0.E+000,-0.E+000));
#177 = ORIENTED_EDGE('',*,*,#178,.T.);
#178 = EDGE_CURVE('',#171,#179,#181,.T.);
#179 = VERTEX_POINT('',#180);
#180 = CARTESIAN_POINT('',(2.24,-0.3,3.));
#181 = LINE('',#182,#183);
#182 = CARTESIAN_POINT('',(2.24,0.45,3.));
#183 = VECTOR('',#184,1.);
#184 = DIRECTION('',(0.E+000,-1.,0.E+000));
#185 = ORIENTED_EDGE('',*,*,#186,.T.);
#186 = EDGE_CURVE('',#179,#187,#189,.T.);
#187 = VERTEX_POINT('',#188);
#188 = CARTESIAN_POINT('',(2.84,-0.3,3.));
#189 = LINE('',#190,#191);
#190 = CARTESIAN_POINT('',(2.88,-0.3,3.));
#191 = VECTOR('',#192,1.);
#192 = DIRECTION('',(1.,0.E+000,0.E+000));
#193 = ORIENTED_EDGE('',*,*,#194,.T.);
#194 = EDGE_CURVE('',#187,#169,#195,.T.);
#195 = LINE('',#196,#197);
#196 = CARTESIAN_POINT('',(2.84,0.75,3.));
#197 = VECTOR('',#198,1.);
#198 = DIRECTION('',(0.E+000,1.,0.E+000));
#199 = PLANE('',#200);
#200 = AXIS2_PLACEMENT_3D('',#201,#202,#203);
#201 = CARTESIAN_POINT('',(2.92,1.2,3.));
#202 = DIRECTION('',(0.E+000,0.E+000,-1.));
#203 = DIRECTION('',(-1.,0.E+000,0.E+000));
#204 = ADVANCED_FACE('',(#205,#216),#227,.F.);
#205 = FACE_BOUND('',#206,.F.);
#206 = EDGE_LOOP('',(#207,#208,#209,#215));
#207 = ORIENTED_EDGE('',*,*,#31,.F.);
#208 = ORIENTED_EDGE('',*,*,#62,.T.);
#209 = ORIENTED_EDGE('',*,*,#210,.F.);
#210 = EDGE_CURVE('',#94,#63,#211,.T.);
#211 = LINE('',#212,#213);
#212 = CARTESIAN_POINT('',(-0.38,-1.2,4.6));
#213 = VECTOR('',#214,1.);
#214 = DIRECTION('',(1.,0.E+000,0.E+000));
#215 = ORIENTED_EDGE('',*,*,#93,.F.);
#216 = FACE_BOUND('',#217,.F.);
#217 = EDGE_LOOP('',(#218));
#218 = ORIENTED_EDGE('',*,*,#219,.F.);
#219 = EDGE_CURVE('',#220,#220,#222,.T.);
#220 = VERTEX_POINT('',#221);
#221 = CARTESIAN_POINT('',(2.17,3.064215547965E-015,4.6));
#222 = CIRCLE('',#223,0.9);
#223 = AXIS2_PLACEMENT_3D('',#224,#225,#226);
#224 = CARTESIAN_POINT('',(1.27,2.04281036531E-015,4.6));
#225 = DIRECTION('',(0.E+000,-4.440892098501E-016,-1.));
#226 = DIRECTION('',(1.,1.134894647395E-015,-5.039944672245E-031));
#227 = PLANE('',#228);
#228 = AXIS2_PLACEMENT_3D('',#229,#230,#231);
#229 = CARTESIAN_POINT('',(2.92,1.2,4.6));
#230 = DIRECTION('',(0.E+000,0.E+000,-1.));
#231 = DIRECTION('',(-1.,0.E+000,0.E+000));
#232 = ADVANCED_FACE('',(#233),#239,.F.);
#233 = FACE_BOUND('',#234,.F.);
#234 = EDGE_LOOP('',(#235,#236,#237,#238));
#235 = ORIENTED_EDGE('',*,*,#101,.T.);
#236 = ORIENTED_EDGE('',*,*,#210,.T.);
#237 = ORIENTED_EDGE('',*,*,#70,.F.);
#238 = ORIENTED_EDGE('',*,*,#125,.F.);
#239 = PLANE('',#240);
#240 = AXIS2_PLACEMENT_3D('',#241,#242,#243);
#241 = CARTESIAN_POINT('',(-0.38,-1.2,3.));
#242 = DIRECTION('',(0.E+000,1.,0.E+000));
#243 = DIRECTION('',(1.,0.E+000,0.E+000));
#244 = ADVANCED_FACE('',(#245),#270,.F.);
#245 = FACE_BOUND('',#246,.F.);
#246 = EDGE_LOOP('',(#247,#248,#256,#264));
#247 = ORIENTED_EDGE('',*,*,#134,.T.);
#248 = ORIENTED_EDGE('',*,*,#249,.T.);
#249 = EDGE_CURVE('',#137,#250,#252,.T.);
#250 = VERTEX_POINT('',#251);
#251 = CARTESIAN_POINT('',(-0.3,0.3,-2.6));
#252 = LINE('',#253,#254);
#253 = CARTESIAN_POINT('',(-0.3,0.3,3.4));
#254 = VECTOR('',#255,1.);
#255 = DIRECTION('',(-0.E+000,-0.E+000,-1.));
#256 = ORIENTED_EDGE('',*,*,#257,.T.);
#257 = EDGE_CURVE('',#250,#258,#260,.T.);
#258 = VERTEX_POINT('',#259);
#259 = CARTESIAN_POINT('',(0.3,0.3,-2.6));
#260 = LINE('',#261,#262);
#261 = CARTESIAN_POINT('',(-0.3,0.3,-2.6));
#262 = VECTOR('',#263,1.);
#263 = DIRECTION('',(1.,0.E+000,0.E+000));
#264 = ORIENTED_EDGE('',*,*,#265,.F.);
#265 = EDGE_CURVE('',#135,#258,#266,.T.);
#266 = LINE('',#267,#268);
#267 = CARTESIAN_POINT('',(0.3,0.3,3.4));
#268 = VECTOR('',#269,1.);
#269 = DIRECTION('',(-0.E+000,-0.E+000,-1.));
#270 = PLANE('',#271);
#271 = AXIS2_PLACEMENT_3D('',#272,#273,#274);
#272 = CARTESIAN_POINT('',(-0.3,0.3,3.4));
#273 = DIRECTION('',(0.E+000,-1.,0.E+000));
#274 = DIRECTION('',(1.,0.E+000,0.E+000));
#275 = ADVANCED_FACE('',(#276),#294,.F.);
#276 = FACE_BOUND('',#277,.F.);
#277 = EDGE_LOOP('',(#278,#279,#280,#288));
#278 = ORIENTED_EDGE('',*,*,#160,.T.);
#279 = ORIENTED_EDGE('',*,*,#265,.T.);
#280 = ORIENTED_EDGE('',*,*,#281,.T.);
#281 = EDGE_CURVE('',#258,#282,#284,.T.);
#282 = VERTEX_POINT('',#283);
#283 = CARTESIAN_POINT('',(0.3,-0.3,-2.6));
#284 = LINE('',#285,#286);
#285 = CARTESIAN_POINT('',(0.3,0.3,-2.6));
#286 = VECTOR('',#287,1.);
#287 = DIRECTION('',(0.E+000,-1.,0.E+000));
#288 = ORIENTED_EDGE('',*,*,#289,.F.);
#289 = EDGE_CURVE('',#153,#282,#290,.T.);
#290 = LINE('',#291,#292);
#291 = CARTESIAN_POINT('',(0.3,-0.3,3.4));
#292 = VECTOR('',#293,1.);
#293 = DIRECTION('',(-0.E+000,-0.E+000,-1.));
#294 = PLANE('',#295);
#295 = AXIS2_PLACEMENT_3D('',#296,#297,#298);
#296 = CARTESIAN_POINT('',(0.3,0.3,3.4));
#297 = DIRECTION('',(-1.,0.E+000,0.E+000));
#298 = DIRECTION('',(0.E+000,-1.,0.E+000));
#299 = ADVANCED_FACE('',(#300),#318,.F.);
#300 = FACE_BOUND('',#301,.F.);
#301 = EDGE_LOOP('',(#302,#303,#304,#312));
#302 = ORIENTED_EDGE('',*,*,#152,.T.);
#303 = ORIENTED_EDGE('',*,*,#289,.T.);
#304 = ORIENTED_EDGE('',*,*,#305,.T.);
#305 = EDGE_CURVE('',#282,#306,#308,.T.);
#306 = VERTEX_POINT('',#307);
#307 = CARTESIAN_POINT('',(-0.3,-0.3,-2.6));
#308 = LINE('',#309,#310);
#309 = CARTESIAN_POINT('',(0.3,-0.3,-2.6));
#310 = VECTOR('',#311,1.);
#311 = DIRECTION('',(-1.,0.E+000,0.E+000));
#312 = ORIENTED_EDGE('',*,*,#313,.F.);
#313 = EDGE_CURVE('',#145,#306,#314,.T.);
#314 = LINE('',#315,#316);
#315 = CARTESIAN_POINT('',(-0.3,-0.3,3.4));
#316 = VECTOR('',#317,1.);
#317 = DIRECTION('',(-0.E+000,-0.E+000,-1.));
#318 = PLANE('',#319);
#319 = AXIS2_PLACEMENT_3D('',#320,#321,#322);
#320 = CARTESIAN_POINT('',(0.3,-0.3,3.4));
#321 = DIRECTION('',(0.E+000,1.,0.E+000));
#322 = DIRECTION('',(-1.,0.E+000,0.E+000));
#323 = ADVANCED_FACE('',(#324),#335,.F.);
#324 = FACE_BOUND('',#325,.F.);
#325 = EDGE_LOOP('',(#326,#327,#328,#334));
#326 = ORIENTED_EDGE('',*,*,#144,.T.);
#327 = ORIENTED_EDGE('',*,*,#313,.T.);
#328 = ORIENTED_EDGE('',*,*,#329,.T.);
#329 = EDGE_CURVE('',#306,#250,#330,.T.);
#330 = LINE('',#331,#332);
#331 = CARTESIAN_POINT('',(-0.3,-0.3,-2.6));
#332 = VECTOR('',#333,1.);
#333 = DIRECTION('',(0.E+000,1.,0.E+000));
#334 = ORIENTED_EDGE('',*,*,#249,.F.);
#335 = PLANE('',#336);
#336 = AXIS2_PLACEMENT_3D('',#337,#338,#339);
#337 = CARTESIAN_POINT('',(-0.3,-0.3,3.4));
#338 = DIRECTION('',(1.,0.E+000,0.E+000));
#339 = DIRECTION('',(0.E+000,1.,0.E+000));
#340 = ADVANCED_FACE('',(#341),#366,.F.);
#341 = FACE_BOUND('',#342,.F.);
#342 = EDGE_LOOP('',(#343,#344,#352,#360));
#343 = ORIENTED_EDGE('',*,*,#168,.T.);
#344 = ORIENTED_EDGE('',*,*,#345,.T.);
#345 = EDGE_CURVE('',#171,#346,#348,.T.);
#346 = VERTEX_POINT('',#347);
#347 = CARTESIAN_POINT('',(2.24,0.3,-2.6));
#348 = LINE('',#349,#350);
#349 = CARTESIAN_POINT('',(2.24,0.3,3.4));
#350 = VECTOR('',#351,1.);
#351 = DIRECTION('',(-0.E+000,-0.E+000,-1.));
#352 = ORIENTED_EDGE('',*,*,#353,.T.);
#353 = EDGE_CURVE('',#346,#354,#356,.T.);
#354 = VERTEX_POINT('',#355);
#355 = CARTESIAN_POINT('',(2.84,0.3,-2.6));
#356 = LINE('',#357,#358);
#357 = CARTESIAN_POINT('',(2.24,0.3,-2.6));
#358 = VECTOR('',#359,1.);
#359 = DIRECTION('',(1.,0.E+000,0.E+000));
#360 = ORIENTED_EDGE('',*,*,#361,.F.);
#361 = EDGE_CURVE('',#169,#354,#362,.T.);
#362 = LINE('',#363,#364);
#363 = CARTESIAN_POINT('',(2.84,0.3,3.4));
#364 = VECTOR('',#365,1.);
#365 = DIRECTION('',(-0.E+000,-0.E+000,-1.));
#366 = PLANE('',#367);
#367 = AXIS2_PLACEMENT_3D('',#368,#369,#370);
#368 = CARTESIAN_POINT('',(2.24,0.3,3.4));
#369 = DIRECTION('',(0.E+000,-1.,0.E+000));
#370 = DIRECTION('',(1.,0.E+000,0.E+000));
#371 = ADVANCED_FACE('',(#372),#390,.F.);
#372 = FACE_BOUND('',#373,.F.);
#373 = EDGE_LOOP('',(#374,#375,#376,#384));
#374 = ORIENTED_EDGE('',*,*,#194,.T.);
#375 = ORIENTED_EDGE('',*,*,#361,.T.);
#376 = ORIENTED_EDGE('',*,*,#377,.T.);
#377 = EDGE_CURVE('',#354,#378,#380,.T.);
#378 = VERTEX_POINT('',#379);
#379 = CARTESIAN_POINT('',(2.84,-0.3,-2.6));
#380 = LINE('',#381,#382);
#381 = CARTESIAN_POINT('',(2.84,0.3,-2.6));
#382 = VECTOR('',#383,1.);
#383 = DIRECTION('',(0.E+000,-1.,0.E+000));
#384 = ORIENTED_EDGE('',*,*,#385,.F.);
#385 = EDGE_CURVE('',#187,#378,#386,.T.);
#386 = LINE('',#387,#388);
#387 = CARTESIAN_POINT('',(2.84,-0.3,3.4));
#388 = VECTOR('',#389,1.);
#389 = DIRECTION('',(-0.E+000,-0.E+000,-1.));
#390 = PLANE('',#391);
#391 = AXIS2_PLACEMENT_3D('',#392,#393,#394);
#392 = CARTESIAN_POINT('',(2.84,0.3,3.4));
#393 = DIRECTION('',(-1.,0.E+000,0.E+000));
#394 = DIRECTION('',(0.E+000,-1.,0.E+000));
#395 = ADVANCED_FACE('',(#396),#414,.F.);
#396 = FACE_BOUND('',#397,.F.);
#397 = EDGE_LOOP('',(#398,#399,#400,#408));
#398 = ORIENTED_EDGE('',*,*,#186,.T.);
#399 = ORIENTED_EDGE('',*,*,#385,.T.);
#400 = ORIENTED_EDGE('',*,*,#401,.T.);
#401 = EDGE_CURVE('',#378,#402,#404,.T.);
#402 = VERTEX_POINT('',#403);
#403 = CARTESIAN_POINT('',(2.24,-0.3,-2.6));
#404 = LINE('',#405,#406);
#405 = CARTESIAN_POINT('',(2.84,-0.3,-2.6));
#406 = VECTOR('',#407,1.);
#407 = DIRECTION('',(-1.,0.E+000,0.E+000));
#408 = ORIENTED_EDGE('',*,*,#409,.F.);
#409 = EDGE_CURVE('',#179,#402,#410,.T.);
#410 = LINE('',#411,#412);
#411 = CARTESIAN_POINT('',(2.24,-0.3,3.4));
#412 = VECTOR('',#413,1.);
#413 = DIRECTION('',(-0.E+000,-0.E+000,-1.));
#414 = PLANE('',#415);
#415 = AXIS2_PLACEMENT_3D('',#416,#417,#418);
#416 = CARTESIAN_POINT('',(2.84,-0.3,3.4));
#417 = DIRECTION('',(0.E+000,1.,0.E+000));
#418 = DIRECTION('',(-1.,0.E+000,0.E+000));
#419 = ADVANCED_FACE('',(#420),#431,.F.);
#420 = FACE_BOUND('',#421,.F.);
#421 = EDGE_LOOP('',(#422,#423,#424,#430));
#422 = ORIENTED_EDGE('',*,*,#178,.T.);
#423 = ORIENTED_EDGE('',*,*,#409,.T.);
#424 = ORIENTED_EDGE('',*,*,#425,.T.);
#425 = EDGE_CURVE('',#402,#346,#426,.T.);
#426 = LINE('',#427,#428);
#427 = CARTESIAN_POINT('',(2.24,-0.3,-2.6));
#428 = VECTOR('',#429,1.);
#429 = DIRECTION('',(0.E+000,1.,0.E+000));
#430 = ORIENTED_EDGE('',*,*,#345,.F.);
#431 = PLANE('',#432);
#432 = AXIS2_PLACEMENT_3D('',#433,#434,#435);
#433 = CARTESIAN_POINT('',(2.24,-0.3,3.4));
#434 = DIRECTION('',(1.,0.E+000,0.E+000));
#435 = DIRECTION('',(0.E+000,1.,0.E+000));
#436 = ADVANCED_FACE('',(#437),#456,.T.);
#437 = FACE_BOUND('',#438,.T.);
#438 = EDGE_LOOP('',(#439,#448,#454,#455));
#439 = ORIENTED_EDGE('',*,*,#440,.T.);
#440 = EDGE_CURVE('',#441,#441,#443,.T.);
#441 = VERTEX_POINT('',#442);
#442 = CARTESIAN_POINT('',(2.17,3.637090628672E-015,5.19));
#443 = CIRCLE('',#444,0.9);
#444 = AXIS2_PLACEMENT_3D('',#445,#446,#447);
#445 = CARTESIAN_POINT('',(1.27,2.304822999122E-015,5.19));
#446 = DIRECTION('',(0.E+000,-4.440892098501E-016,-1.));
#447 = DIRECTION('',(1.,1.480297366167E-015,-6.573840876842E-031));
#448 = ORIENTED_EDGE('',*,*,#449,.T.);
#449 = EDGE_CURVE('',#441,#220,#450,.T.);
#450 = LINE('',#451,#452);
#451 = CARTESIAN_POINT('',(2.17,3.996802888651E-015,6.));
#452 = VECTOR('',#453,1.);
#453 = DIRECTION('',(0.E+000,-6.661338147751E-016,-1.));
#454 = ORIENTED_EDGE('',*,*,#219,.F.);
#455 = ORIENTED_EDGE('',*,*,#449,.F.);
#456 = CYLINDRICAL_SURFACE('',#457,0.9);
#457 = AXIS2_PLACEMENT_3D('',#458,#459,#460);
#458 = CARTESIAN_POINT('',(1.27,2.6645352591E-015,6.));
#459 = DIRECTION('',(0.E+000,-4.440892098501E-016,-1.));
#460 = DIRECTION('',(1.,1.480297366167E-015,-6.573840876842E-031));
#461 = ADVANCED_FACE('',(#462),#468,.F.);
#462 = FACE_BOUND('',#463,.T.);
#463 = EDGE_LOOP('',(#464,#465,#466,#467));
#464 = ORIENTED_EDGE('',*,*,#257,.T.);
#465 = ORIENTED_EDGE('',*,*,#281,.T.);
#466 = ORIENTED_EDGE('',*,*,#305,.T.);
#467 = ORIENTED_EDGE('',*,*,#329,.T.);
#468 = PLANE('',#469);
#469 = AXIS2_PLACEMENT_3D('',#470,#471,#472);
#470 = CARTESIAN_POINT('',(-0.3,0.3,-2.6));
#471 = DIRECTION('',(0.E+000,0.E+000,1.));
#472 = DIRECTION('',(1.,0.E+000,0.E+000));
#473 = ADVANCED_FACE('',(#474),#480,.F.);
#474 = FACE_BOUND('',#475,.T.);
#475 = EDGE_LOOP('',(#476,#477,#478,#479));
#476 = ORIENTED_EDGE('',*,*,#353,.T.);
#477 = ORIENTED_EDGE('',*,*,#377,.T.);
#478 = ORIENTED_EDGE('',*,*,#401,.T.);
#479 = ORIENTED_EDGE('',*,*,#425,.T.);
#480 = PLANE('',#481);
#481 = AXIS2_PLACEMENT_3D('',#482,#483,#484);
#482 = CARTESIAN_POINT('',(2.24,0.3,-2.6));
#483 = DIRECTION('',(0.E+000,0.E+000,1.));
#484 = DIRECTION('',(1.,0.E+000,0.E+000));
#485 = ADVANCED_FACE('',(#486),#506,.T.);
#486 = FACE_BOUND('',#487,.F.);
#487 = EDGE_LOOP('',(#488,#497,#498,#499));
#488 = ORIENTED_EDGE('',*,*,#489,.F.);
#489 = EDGE_CURVE('',#441,#490,#492,.T.);
#490 = VERTEX_POINT('',#491);
#491 = CARTESIAN_POINT('',(1.36,2.797762022055E-015,6.));
#492 = CIRCLE('',#493,0.81);
#493 = AXIS2_PLACEMENT_3D('',#494,#495,#496);
#494 = CARTESIAN_POINT('',(1.36,2.438049762077E-015,5.19));
#495 = DIRECTION('',(1.480297366167E-015,-1.,4.440892098501E-016));
#496 = DIRECTION('',(1.,1.480297366167E-015,-6.573840876842E-031));
#497 = ORIENTED_EDGE('',*,*,#440,.T.);
#498 = ORIENTED_EDGE('',*,*,#489,.T.);
#499 = ORIENTED_EDGE('',*,*,#500,.F.);
#500 = EDGE_CURVE('',#490,#490,#501,.T.);
#501 = CIRCLE('',#502,9.E-002);
#502 = AXIS2_PLACEMENT_3D('',#503,#504,#505);
#503 = CARTESIAN_POINT('',(1.27,2.6645352591E-015,6.));
#504 = DIRECTION('',(0.E+000,-4.440892098501E-016,-1.));
#505 = DIRECTION('',(1.,1.480297366167E-015,-6.573840876842E-031));
#506 = SURFACE_OF_REVOLUTION('',#507,#518);
#507 = B_SPLINE_CURVE_WITH_KNOTS('',5,(#508,#509,#510,#511,#512,#513,
    #514,#515,#516,#517),.UNSPECIFIED.,.F.,.F.,(6,4,6),(0.E+000,
    0.785398163397,1.570796326795),.UNSPECIFIED.);
#508 = CARTESIAN_POINT('',(2.17,3.637090628672E-015,5.19));
#509 = CARTESIAN_POINT('',(2.17,3.69359409834E-015,5.31723450247));
#510 = CARTESIAN_POINT('',(2.145023169714,3.713125327108E-015,
    5.444471020725));
#511 = CARTESIAN_POINT('',(2.095033391063,3.692720940526E-015,
    5.565157022323));
#512 = CARTESIAN_POINT('',(2.022724872259,3.633480636719E-015,
    5.672788113263));
#513 = CARTESIAN_POINT('',(1.842788113263,3.447028699427E-015,
    5.852724872259));
#514 = CARTESIAN_POINT('',(1.735157022323,3.319814111971E-015,
    5.925033391063));
#515 = CARTESIAN_POINT('',(1.614471020725,3.163362862974E-015,
    5.975023169714));
#516 = CARTESIAN_POINT('',(1.48723450247,2.986106920948E-015,6.));
#517 = CARTESIAN_POINT('',(1.36,2.797762022055E-015,6.));
#518 = AXIS1_PLACEMENT('',#519,#520);
#519 = CARTESIAN_POINT('',(1.27,2.304822999122E-015,5.19));
#520 = DIRECTION('',(0.E+000,4.440892098501E-016,1.));
#521 = ADVANCED_FACE('',(#522),#525,.F.);
#522 = FACE_BOUND('',#523,.T.);
#523 = EDGE_LOOP('',(#524));
#524 = ORIENTED_EDGE('',*,*,#500,.F.);
#525 = PLANE('',#526);
#526 = AXIS2_PLACEMENT_3D('',#527,#528,#529);
#527 = CARTESIAN_POINT('',(1.27,2.6645352591E-015,6.));
#528 = DIRECTION('',(0.E+000,-4.440892098501E-016,-1.));
#529 = DIRECTION('',(1.,1.480297366167E-015,-6.573840876842E-031));
#530 = ( GEOMETRIC_REPRESENTATION_CONTEXT(3) 
GLOBAL_UNCERTAINTY_ASSIGNED_CONTEXT((#534)) GLOBAL_UNIT_ASSIGNED_CONTEXT
((#531,#532,#533)) REPRESENTATION_CONTEXT('Context #1',
  '3D Context with UNIT and UNCERTAINTY') );
#531 = ( LENGTH_UNIT() NAMED_UNIT(*) SI_UNIT(.MILLI.,.METRE.) );
#532 = ( NAMED_UNIT(*) PLANE_ANGLE_UNIT() SI_UNIT($,.RADIAN.) );
#533 = ( NAMED_UNIT(*) SI_UNIT($,.STERADIAN.) SOLID_ANGLE_UNIT() );
#534 = UNCERTAINTY_MEASURE_WITH_UNIT(LENGTH_MEASURE(1.E-007),#531,
  'distance_accuracy_value','confusion accuracy');
#535 = PRODUCT_TYPE('part',$,(#7));
#536 = MECHANICAL_DESIGN_GEOMETRIC_PRESENTATION_REPRESENTATION('',(#537,
    #545,#552,#559,#566,#573,#580,#588,#595,#602,#609,#616,#623,#630,
    #637,#644,#651,#658,#665),#530);
#537 = STYLED_ITEM('color',(#538),#17);
#538 = PRESENTATION_STYLE_ASSIGNMENT((#539));
#539 = SURFACE_STYLE_USAGE(.BOTH.,#540);
#540 = SURFACE_SIDE_STYLE('',(#541));
#541 = SURFACE_STYLE_FILL_AREA(#542);
#542 = FILL_AREA_STYLE('',(#543));
#543 = FILL_AREA_STYLE_COLOUR('',#544);
#544 = COLOUR_RGB('',0.699999988079,0.10000000149,5.000000074506E-002);
#545 = STYLED_ITEM('color',(#546),#57);
#546 = PRESENTATION_STYLE_ASSIGNMENT((#547));
#547 = SURFACE_STYLE_USAGE(.BOTH.,#548);
#548 = SURFACE_SIDE_STYLE('',(#549));
#549 = SURFACE_STYLE_FILL_AREA(#550);
#550 = FILL_AREA_STYLE('',(#551));
#551 = FILL_AREA_STYLE_COLOUR('',#544);
#552 = STYLED_ITEM('color',(#553),#88);
#553 = PRESENTATION_STYLE_ASSIGNMENT((#554));
#554 = SURFACE_STYLE_USAGE(.BOTH.,#555);
#555 = SURFACE_SIDE_STYLE('',(#556));
#556 = SURFACE_STYLE_FILL_AREA(#557);
#557 = FILL_AREA_STYLE('',(#558));
#558 = FILL_AREA_STYLE_COLOUR('',#544);
#559 = STYLED_ITEM('color',(#560),#119);
#560 = PRESENTATION_STYLE_ASSIGNMENT((#561));
#561 = SURFACE_STYLE_USAGE(.BOTH.,#562);
#562 = SURFACE_SIDE_STYLE('',(#563));
#563 = SURFACE_STYLE_FILL_AREA(#564);
#564 = FILL_AREA_STYLE('',(#565));
#565 = FILL_AREA_STYLE_COLOUR('',#544);
#566 = STYLED_ITEM('color',(#567),#204);
#567 = PRESENTATION_STYLE_ASSIGNMENT((#568));
#568 = SURFACE_STYLE_USAGE(.BOTH.,#569);
#569 = SURFACE_SIDE_STYLE('',(#570));
#570 = SURFACE_STYLE_FILL_AREA(#571);
#571 = FILL_AREA_STYLE('',(#572));
#572 = FILL_AREA_STYLE_COLOUR('',#544);
#573 = STYLED_ITEM('color',(#574),#232);
#574 = PRESENTATION_STYLE_ASSIGNMENT((#575));
#575 = SURFACE_STYLE_USAGE(.BOTH.,#576);
#576 = SURFACE_SIDE_STYLE('',(#577));
#577 = SURFACE_STYLE_FILL_AREA(#578);
#578 = FILL_AREA_STYLE('',(#579));
#579 = FILL_AREA_STYLE_COLOUR('',#544);
#580 = STYLED_ITEM('color',(#581),#244);
#581 = PRESENTATION_STYLE_ASSIGNMENT((#582));
#582 = SURFACE_STYLE_USAGE(.BOTH.,#583);
#583 = SURFACE_SIDE_STYLE('',(#584));
#584 = SURFACE_STYLE_FILL_AREA(#585);
#585 = FILL_AREA_STYLE('',(#586));
#586 = FILL_AREA_STYLE_COLOUR('',#587);
#587 = COLOUR_RGB('',0.824000000954,0.819999992847,0.78100001812);
#588 = STYLED_ITEM('color',(#589),#275);
#589 = PRESENTATION_STYLE_ASSIGNMENT((#590));
#590 = SURFACE_STYLE_USAGE(.BOTH.,#591);
#591 = SURFACE_SIDE_STYLE('',(#592));
#592 = SURFACE_STYLE_FILL_AREA(#593);
#593 = FILL_AREA_STYLE('',(#594));
#594 = FILL_AREA_STYLE_COLOUR('',#587);
#595 = STYLED_ITEM('color',(#596),#299);
#596 = PRESENTATION_STYLE_ASSIGNMENT((#597));
#597 = SURFACE_STYLE_USAGE(.BOTH.,#598);
#598 = SURFACE_SIDE_STYLE('',(#599));
#599 = SURFACE_STYLE_FILL_AREA(#600);
#600 = FILL_AREA_STYLE('',(#601));
#601 = FILL_AREA_STYLE_COLOUR('',#587);
#602 = STYLED_ITEM('color',(#603),#323);
#603 = PRESENTATION_STYLE_ASSIGNMENT((#604));
#604 = SURFACE_STYLE_USAGE(.BOTH.,#605);
#605 = SURFACE_SIDE_STYLE('',(#606));
#606 = SURFACE_STYLE_FILL_AREA(#607);
#607 = FILL_AREA_STYLE('',(#608));
#608 = FILL_AREA_STYLE_COLOUR('',#587);
#609 = STYLED_ITEM('color',(#610),#340);
#610 = PRESENTATION_STYLE_ASSIGNMENT((#611));
#611 = SURFACE_STYLE_USAGE(.BOTH.,#612);
#612 = SURFACE_SIDE_STYLE('',(#613));
#613 = SURFACE_STYLE_FILL_AREA(#614);
#614 = FILL_AREA_STYLE('',(#615));
#615 = FILL_AREA_STYLE_COLOUR('',#587);
#616 = STYLED_ITEM('color',(#617),#371);
#617 = PRESENTATION_STYLE_ASSIGNMENT((#618));
#618 = SURFACE_STYLE_USAGE(.BOTH.,#619);
#619 = SURFACE_SIDE_STYLE('',(#620));
#620 = SURFACE_STYLE_FILL_AREA(#621);
#621 = FILL_AREA_STYLE('',(#622));
#622 = FILL_AREA_STYLE_COLOUR('',#587);
#623 = STYLED_ITEM('color',(#624),#395);
#624 = PRESENTATION_STYLE_ASSIGNMENT((#625));
#625 = SURFACE_STYLE_USAGE(.BOTH.,#626);
#626 = SURFACE_SIDE_STYLE('',(#627));
#627 = SURFACE_STYLE_FILL_AREA(#628);
#628 = FILL_AREA_STYLE('',(#629));
#629 = FILL_AREA_STYLE_COLOUR('',#587);
#630 = STYLED_ITEM('color',(#631),#419);
#631 = PRESENTATION_STYLE_ASSIGNMENT((#632));
#632 = SURFACE_STYLE_USAGE(.BOTH.,#633);
#633 = SURFACE_SIDE_STYLE('',(#634));
#634 = SURFACE_STYLE_FILL_AREA(#635);
#635 = FILL_AREA_STYLE('',(#636));
#636 = FILL_AREA_STYLE_COLOUR('',#587);
#637 = STYLED_ITEM('color',(#638),#436);
#638 = PRESENTATION_STYLE_ASSIGNMENT((#639));
#639 = SURFACE_STYLE_USAGE(.BOTH.,#640);
#640 = SURFACE_SIDE_STYLE('',(#641));
#641 = SURFACE_STYLE_FILL_AREA(#642);
#642 = FILL_AREA_STYLE('',(#643));
#643 = FILL_AREA_STYLE_COLOUR('',#544);
#644 = STYLED_ITEM('color',(#645),#461);
#645 = PRESENTATION_STYLE_ASSIGNMENT((#646));
#646 = SURFACE_STYLE_USAGE(.BOTH.,#647);
#647 = SURFACE_SIDE_STYLE('',(#648));
#648 = SURFACE_STYLE_FILL_AREA(#649);
#649 = FILL_AREA_STYLE('',(#650));
#650 = FILL_AREA_STYLE_COLOUR('',#587);
#651 = STYLED_ITEM('color',(#652),#473);
#652 = PRESENTATION_STYLE_ASSIGNMENT((#653));
#653 = SURFACE_STYLE_USAGE(.BOTH.,#654);
#654 = SURFACE_SIDE_STYLE('',(#655));
#655 = SURFACE_STYLE_FILL_AREA(#656);
#656 = FILL_AREA_STYLE('',(#657));
#657 = FILL_AREA_STYLE_COLOUR('',#587);
#658 = STYLED_ITEM('color',(#659),#485);
#659 = PRESENTATION_STYLE_ASSIGNMENT((#660));
#660 = SURFACE_STYLE_USAGE(.BOTH.,#661);
#661 = SURFACE_SIDE_STYLE('',(#662));
#662 = SURFACE_STYLE_FILL_AREA(#663);
#663 = FILL_AREA_STYLE('',(#664));
#664 = FILL_AREA_STYLE_COLOUR('',#544);
#665 = STYLED_ITEM('color',(#666),#521);
#666 = PRESENTATION_STYLE_ASSIGNMENT((#667));
#667 = SURFACE_STYLE_USAGE(.BOTH.,#668);
#668 = SURFACE_SIDE_STYLE('',(#669));
#669 = SURFACE_STYLE_FILL_AREA(#670);
#670 = FILL_AREA_STYLE('',(#671));
#671 = FILL_AREA_STYLE_COLOUR('',#544);
ENDSEC;
END-ISO-10303-21;
