ISO-10303-21;
HEADER;
/* RV_Disc_D7mm_W3.5mm_P5mm.step 3D STEP model for use in ECAD systems
 * Copyright (C) 2018, kicad StepUp
 * 
 * This work is licensed under the [Creative Commons CC-BY-SA 4.0 License](https://creativecommons.org/licenses/by-sa/4.0/legalcode), 
 * with the following exception:
 * To the extent that the creation of electronic designs that use 'Licensed Material' can be considered to be 'Adapted Material', 
 * then the copyright holder waives article 3 of the license with respect to these designs and any generated files which use data provided 
 * as part of the 'Licensed Material'.
 * You are free to use the library data in your own projects without the obligation to share your project files under this or any other license agreement.
 * However, if you wish to redistribute these libraries, or parts thereof (including in modified form) as a collection then the exception above does not apply. 
 * Please refer to https://github.com/KiCad/kicad-packages3D/blob/master/LICENSE.md for further clarification of the exception.
 * Disclaimer of Warranties and Limitation of Liability.
 * These libraries are provided in the hope that they will be useful, but are provided without warranty of any kind, express or implied.
 * *USE 3D CAD DATA AT YOUR OWN RISK*
 * *DO NOT RELY UPON ANY INFORMATION FOUND HERE WITHOUT INDEPENDENT VERIFICATION.*
 * 
 */

FILE_DESCRIPTION(
/* description */ ('model of RV_Disc_D7mm_W3.5mm_P5mm'),
/* implementation_level */ '2;1');

FILE_NAME(
/* name */ 'RV_Disc_D7mm_W3.5mm_P5mm.step',
/* time_stamp */ '2018-11-11T21:06:52',
/* author */ ('kicad StepUp','ksu'),
/* organization */ ('FreeCAD'),
/* preprocessor_version */ 'OCC',
/* originating_system */ 'kicad StepUp',
/* authorisation */ '');

FILE_SCHEMA(('AUTOMOTIVE_DESIGN { 1 0 10303 214 1 1 1 1 }'));
ENDSEC;

DATA;
#1 = APPLICATION_PROTOCOL_DEFINITION('international standard',
'automotive_design',2000,#2);
#2 = APPLICATION_CONTEXT(
'core data for automotive mechanical design processes');
#3 = SHAPE_DEFINITION_REPRESENTATION(#4,#10);
#4 = PRODUCT_DEFINITION_SHAPE('','',#5);
#5 = PRODUCT_DEFINITION('design','',#6,#9);
#6 = PRODUCT_DEFINITION_FORMATION('','',#7);
#7 = PRODUCT('RV_Disc_D7mm_W35mm_P5mm','RV_Disc_D7mm_W35mm_P5mm','',(#8)
);
#8 = PRODUCT_CONTEXT('',#2,'mechanical');
#9 = PRODUCT_DEFINITION_CONTEXT('part definition',#2,'design');
#10 = ADVANCED_BREP_SHAPE_REPRESENTATION('',(#11,#15),#388);
#11 = AXIS2_PLACEMENT_3D('',#12,#13,#14);
#12 = CARTESIAN_POINT('',(0.E+000,0.E+000,0.E+000));
#13 = DIRECTION('',(0.E+000,0.E+000,1.));
#14 = DIRECTION('',(1.,0.E+000,-0.E+000));
#15 = MANIFOLD_SOLID_BREP('',#16);
#16 = CLOSED_SHELL('',(#17,#50,#146,#248,#257,#283,#292,#318,#344,#370,
#379));
#17 = ADVANCED_FACE('',(#18),#45,.T.);
#18 = FACE_BOUND('',#19,.F.);
#19 = EDGE_LOOP('',(#20,#30,#37,#38));
#20 = ORIENTED_EDGE('',*,*,#21,.T.);
#21 = EDGE_CURVE('',#22,#24,#26,.T.);
#22 = VERTEX_POINT('',#23);
#23 = CARTESIAN_POINT('',(6.,-0.607317073171,3.53));
#24 = VERTEX_POINT('',#25);
#25 = CARTESIAN_POINT('',(6.,-0.692682926829,3.53));
#26 = LINE('',#27,#28);
#27 = CARTESIAN_POINT('',(6.,1.1,3.53));
#28 = VECTOR('',#29,1.);
#29 = DIRECTION('',(0.E+000,-1.,0.E+000));
#30 = ORIENTED_EDGE('',*,*,#31,.T.);
#31 = EDGE_CURVE('',#24,#24,#32,.T.);
#32 = CIRCLE('',#33,3.5);
#33 = AXIS2_PLACEMENT_3D('',#34,#35,#36);
#34 = CARTESIAN_POINT('',(2.5,-0.692682926829,3.53));
#35 = DIRECTION('',(8.049601073684E-033,-1.,3.756480501052E-032));
#36 = DIRECTION('',(1.,8.049601073684E-033,-1.832429512709E-032));
#37 = ORIENTED_EDGE('',*,*,#21,.F.);
#38 = ORIENTED_EDGE('',*,*,#39,.F.);
#39 = EDGE_CURVE('',#22,#22,#40,.T.);
#40 = CIRCLE('',#41,3.5);
#41 = AXIS2_PLACEMENT_3D('',#42,#43,#44);
#42 = CARTESIAN_POINT('',(2.5,-0.607317073171,3.53));
#43 = DIRECTION('',(8.049601073684E-033,-1.,3.756480501052E-032));
#44 = DIRECTION('',(1.,8.049601073684E-033,1.832429512709E-032));
#45 = CYLINDRICAL_SURFACE('',#46,3.5);
#46 = AXIS2_PLACEMENT_3D('',#47,#48,#49);
#47 = CARTESIAN_POINT('',(2.5,1.1,3.53));
#48 = DIRECTION('',(0.E+000,1.,0.E+000));
#49 = DIRECTION('',(1.,0.E+000,0.E+000));
#50 = ADVANCED_FACE('',(#51,#71),#141,.T.);
#51 = FACE_BOUND('',#52,.F.);
#52 = EDGE_LOOP('',(#53,#54,#63,#70));
#53 = ORIENTED_EDGE('',*,*,#39,.T.);
#54 = ORIENTED_EDGE('',*,*,#55,.T.);
#55 = EDGE_CURVE('',#22,#56,#58,.T.);
#56 = VERTEX_POINT('',#57);
#57 = CARTESIAN_POINT('',(4.292682926829,1.1,3.53));
#58 = CIRCLE('',#59,1.707317073171);
#59 = AXIS2_PLACEMENT_3D('',#60,#61,#62);
#60 = CARTESIAN_POINT('',(4.292682926829,-0.607317073171,3.53));
#61 = DIRECTION('',(-1.832429512709E-032,3.756480501052E-032,1.));
#62 = DIRECTION('',(1.,8.049601073684E-033,1.832429512709E-032));
#63 = ORIENTED_EDGE('',*,*,#64,.F.);
#64 = EDGE_CURVE('',#56,#56,#65,.T.);
#65 = CIRCLE('',#66,1.792682926829);
#66 = AXIS2_PLACEMENT_3D('',#67,#68,#69);
#67 = CARTESIAN_POINT('',(2.5,1.1,3.53));
#68 = DIRECTION('',(8.049601073684E-033,-1.,3.756480501052E-032));
#69 = DIRECTION('',(1.,8.049601073684E-033,1.832429512709E-032));
#70 = ORIENTED_EDGE('',*,*,#55,.F.);
#71 = FACE_BOUND('',#72,.F.);
#72 = EDGE_LOOP('',(#73,#106));
#73 = ORIENTED_EDGE('',*,*,#74,.T.);
#74 = EDGE_CURVE('',#75,#77,#79,.T.);
#75 = VERTEX_POINT('',#76);
#76 = CARTESIAN_POINT('',(0.27,0.E+000,0.978941958351));
#77 = VERTEX_POINT('',#78);
#78 = CARTESIAN_POINT('',(-0.240388536348,-0.122936372131,1.467447545754
));
#79 = B_SPLINE_CURVE_WITH_KNOTS('',7,(#80,#81,#82,#83,#84,#85,#86,#87,
#88,#89,#90,#91,#92,#93,#94,#95,#96,#97,#98,#99,#100,#101,#102,#103,
#104,#105),.UNSPECIFIED.,.F.,.F.,(8,6,6,6,8),(0.E+000,0.136496390112
,0.440708840297,0.809911817237,1.),.UNSPECIFIED.);
#80 = CARTESIAN_POINT('',(0.27,-1.110223024625E-016,0.978941958351));
#81 = CARTESIAN_POINT('',(0.27,-1.435878428298E-002,0.971683216982));
#82 = CARTESIAN_POINT('',(0.269109157786,-2.884496239734E-002,
0.965378428017));
#83 = CARTESIAN_POINT('',(0.267298862296,-4.338563486108E-002,
0.960083344332));
#84 = CARTESIAN_POINT('',(0.264549169564,-5.789776388661E-002,
0.955847511361));
#85 = CARTESIAN_POINT('',(0.260852084402,-7.229097397529E-002,
0.952710339334));
#86 = CARTESIAN_POINT('',(0.256214842085,-8.647035251178E-002,
0.95069717552));
#87 = CARTESIAN_POINT('',(0.238290103303,-0.131249162276,0.947850091904)
);
#88 = CARTESIAN_POINT('',(0.221366374208,-0.160638557485,0.951503115544)
);
#89 = CARTESIAN_POINT('',(0.200179498957,-0.187397866301,0.960874042147)
);
#90 = CARTESIAN_POINT('',(0.175418109036,-0.210620260979,0.975559125258)
);
#91 = CARTESIAN_POINT('',(0.147978621701,-0.22975941459,0.994858154794)
);
#92 = CARTESIAN_POINT('',(0.118754885017,-0.244578732118,1.017994629915)
);
#93 = CARTESIAN_POINT('',(5.192003846076E-002,-0.267785094522,
1.076012859557));
#94 = CARTESIAN_POINT('',(1.383874953585E-002,-0.274125770654,
1.112358537328));
#95 = CARTESIAN_POINT('',(-2.429729641456E-002,-0.274072734009,
1.151942598456));
#96 = CARTESIAN_POINT('',(-6.128820398531E-002,-0.268015818934,
1.193549341127));
#97 = CARTESIAN_POINT('',(-9.623364559031E-002,-0.256515020861,
1.23619192314));
#98 = CARTESIAN_POINT('',(-0.12845795224,-0.24013716756,1.279066606301)
);
#99 = CARTESIAN_POINT('',(-0.172276600578,-0.208702449115,1.343264972845
));
#100 = CARTESIAN_POINT('',(-0.186289449473,-0.196863348648,
1.364944767089));
#101 = CARTESIAN_POINT('',(-0.199340907896,-0.183942190449,
1.386380075092));
#102 = CARTESIAN_POINT('',(-0.211352974149,-0.170012363837,
1.407464724342));
#103 = CARTESIAN_POINT('',(-0.222249380057,-0.155148811986,
1.428087175667));
#104 = CARTESIAN_POINT('',(-0.2319538794,-0.139429414858,1.448126365102)
);
#105 = CARTESIAN_POINT('',(-0.240388536348,-0.122936372131,
1.467447545754));
#106 = ORIENTED_EDGE('',*,*,#107,.T.);
#107 = EDGE_CURVE('',#77,#75,#108,.T.);
#108 = B_SPLINE_CURVE_WITH_KNOTS('',7,(#109,#110,#111,#112,#113,#114,
#115,#116,#117,#118,#119,#120,#121,#122,#123,#124,#125,#126,#127,
#128,#129,#130,#131,#132,#133,#134,#135,#136,#137,#138,#139,#140),
.UNSPECIFIED.,.F.,.F.,(8,6,6,6,6,8),(0.E+000,0.138748353262,
0.298929170541,0.40930153742,0.674991419542,1.),.UNSPECIFIED.);
#109 = CARTESIAN_POINT('',(-0.240388536348,-0.122936372131,
1.467447545754));
#110 = CARTESIAN_POINT('',(-0.248900920345,-0.106291342718,
1.486946774947));
#111 = CARTESIAN_POINT('',(-0.256118119382,-8.886199161239E-002,
1.505710473081));
#112 = CARTESIAN_POINT('',(-0.26196255978,-7.073059975666E-002,
1.523603905965));
#113 = CARTESIAN_POINT('',(-0.266350275227,-5.19901950387E-002,
1.54046974335));
#114 = CARTESIAN_POINT('',(-0.269193788699,-3.27505510861E-002,
1.556123943379));
#115 = CARTESIAN_POINT('',(-0.270407761721,-1.314275320991E-002,
1.57035741295));
#116 = CARTESIAN_POINT('',(-0.269351315712,2.955975160174E-002,
1.597473639768));
#117 = CARTESIAN_POINT('',(-0.266513353457,5.272858024489E-002,
1.609809852702));
#118 = CARTESIAN_POINT('',(-0.261289202683,7.592904466717E-002,
1.619594674782));
#119 = CARTESIAN_POINT('',(-0.253588891006,9.882917722325E-002,
1.626421550482));
#120 = CARTESIAN_POINT('',(-0.243411514793,0.121018640249,1.629911534357
));
#121 = CARTESIAN_POINT('',(-0.23089492442,0.142051284417,1.629822236968)
);
#122 = CARTESIAN_POINT('',(-0.206328473935,0.174954784014,1.62368545416)
);
#123 = CARTESIAN_POINT('',(-0.19533945957,0.187646398226,1.619498042544)
);
#124 = CARTESIAN_POINT('',(-0.183480768353,0.199479145994,1.613633777084
));
#125 = CARTESIAN_POINT('',(-0.170870783704,0.210357390437,1.606154122732
));
#126 = CARTESIAN_POINT('',(-0.157635577098,0.220217591576,1.597161958852
));
#127 = CARTESIAN_POINT('',(-0.14389922123,0.229024772124,1.586786933631)
);
#128 = CARTESIAN_POINT('',(-9.578409582157E-002,0.255398028858,
1.547202731594));
#129 = CARTESIAN_POINT('',(-5.962865541983E-002,0.267810764922,
1.512093123215));
#130 = CARTESIAN_POINT('',(-2.276019051305E-002,0.273963734352,
1.471698772505));
#131 = CARTESIAN_POINT('',(1.367672577006E-002,0.274296030853,
1.428045107926));
#132 = CARTESIAN_POINT('',(4.89166444289E-002,0.269302418834,
1.382688228947));
#133 = CARTESIAN_POINT('',(8.241151376375E-002,0.259416964467,
1.336784564841));
#134 = CARTESIAN_POINT('',(0.151941535622,0.227140233107,1.235497538973)
);
#135 = CARTESIAN_POINT('',(0.186719950816,0.202521649625,1.18051036847)
);
#136 = CARTESIAN_POINT('',(0.217162057054,0.171630505865,1.127939656523)
);
#137 = CARTESIAN_POINT('',(0.242178841572,0.134897135532,1.079436817752)
);
#138 = CARTESIAN_POINT('',(0.260348153342,9.298326271793E-002,
1.036981000114));
#139 = CARTESIAN_POINT('',(0.27,4.726154589953E-002,1.002833907112));
#140 = CARTESIAN_POINT('',(0.27,-8.326672684689E-017,0.978941958351));
#141 = TOROIDAL_SURFACE('',#142,1.792682926829,1.707317073171);
#142 = AXIS2_PLACEMENT_3D('',#143,#144,#145);
#143 = CARTESIAN_POINT('',(2.5,-0.607317073171,3.53));
#144 = DIRECTION('',(-8.049601073684E-033,1.,-3.756480501052E-032));
#145 = DIRECTION('',(1.,8.049601073684E-033,1.832429512709E-032));
#146 = ADVANCED_FACE('',(#147,#167),#243,.T.);
#147 = FACE_BOUND('',#148,.T.);
#148 = EDGE_LOOP('',(#149,#150,#159,#166));
#149 = ORIENTED_EDGE('',*,*,#31,.T.);
#150 = ORIENTED_EDGE('',*,*,#151,.T.);
#151 = EDGE_CURVE('',#24,#152,#154,.T.);
#152 = VERTEX_POINT('',#153);
#153 = CARTESIAN_POINT('',(4.292682926829,-2.4,3.53));
#154 = CIRCLE('',#155,1.707317073171);
#155 = AXIS2_PLACEMENT_3D('',#156,#157,#158);
#156 = CARTESIAN_POINT('',(4.292682926829,-0.692682926829,3.53));
#157 = DIRECTION('',(-1.832429512709E-032,-3.756480501052E-032,-1.));
#158 = DIRECTION('',(1.,8.049601073684E-033,-1.832429512709E-032));
#159 = ORIENTED_EDGE('',*,*,#160,.F.);
#160 = EDGE_CURVE('',#152,#152,#161,.T.);
#161 = CIRCLE('',#162,1.792682926829);
#162 = AXIS2_PLACEMENT_3D('',#163,#164,#165);
#163 = CARTESIAN_POINT('',(2.5,-2.4,3.53));
#164 = DIRECTION('',(8.049601073684E-033,-1.,3.756480501052E-032));
#165 = DIRECTION('',(1.,8.049601073684E-033,-1.832429512709E-032));
#166 = ORIENTED_EDGE('',*,*,#151,.F.);
#167 = FACE_BOUND('',#168,.T.);
#168 = EDGE_LOOP('',(#169,#190));
#169 = ORIENTED_EDGE('',*,*,#170,.T.);
#170 = EDGE_CURVE('',#171,#173,#175,.T.);
#171 = VERTEX_POINT('',#172);
#172 = CARTESIAN_POINT('',(5.27,-1.3,1.578616610744));
#173 = VERTEX_POINT('',#174);
#174 = CARTESIAN_POINT('',(5.057225788181,-1.036134107609,1.191731011276
));
#175 = B_SPLINE_CURVE_WITH_KNOTS('',7,(#176,#177,#178,#179,#180,#181,
#182,#183,#184,#185,#186,#187,#188,#189),.UNSPECIFIED.,.F.,.F.,(8,6,
8),(0.E+000,0.699930228861,1.),.UNSPECIFIED.);
#176 = CARTESIAN_POINT('',(5.27,-1.3,1.578616610744));
#177 = CARTESIAN_POINT('',(5.27,-1.261468980764,1.553152302377));
#178 = CARTESIAN_POINT('',(5.263584765545,-1.223941128041,1.521661390921
));
#179 = CARTESIAN_POINT('',(5.251356533483,-1.188444741238,1.485774997927
));
#180 = CARTESIAN_POINT('',(5.233956307156,-1.155733814451,1.446797359535
));
#181 = CARTESIAN_POINT('',(5.211992823848,-1.126417693808,1.405715060281
));
#182 = CARTESIAN_POINT('',(5.186035870922,-1.101021142834,1.363328971824
));
#183 = CARTESIAN_POINT('',(5.144047781759,-1.071112416957,1.301949421596
));
#184 = CARTESIAN_POINT('',(5.130824778084,-1.062962953594,1.283435917909
));
#185 = CARTESIAN_POINT('',(5.117027425317,-1.055682419977,1.264890218477
));
#186 = CARTESIAN_POINT('',(5.102708482363,-1.049315429028,1.246377104524
));
#187 = CARTESIAN_POINT('',(5.087925320059,-1.04390648949,1.227964197688)
);
#188 = CARTESIAN_POINT('',(5.072741072467,-1.039498977408,1.209723179571
));
#189 = CARTESIAN_POINT('',(5.057225788181,-1.036134107609,1.191731011276
));
#190 = ORIENTED_EDGE('',*,*,#191,.T.);
#191 = EDGE_CURVE('',#173,#171,#192,.T.);
#192 = B_SPLINE_CURVE_WITH_KNOTS('',7,(#193,#194,#195,#196,#197,#198,
#199,#200,#201,#202,#203,#204,#205,#206,#207,#208,#209,#210,#211,
#212,#213,#214,#215,#216,#217,#218,#219,#220,#221,#222,#223,#224,
#225,#226,#227,#228,#229,#230,#231,#232,#233,#234,#235,#236,#237,
#238,#239,#240,#241,#242),.UNSPECIFIED.,.F.,.F.,(8,6,6,6,6,6,6,6,8),
(0.E+000,0.178809110341,0.27770675828,0.37965127174,0.434630034299,
0.593664072585,0.747938995825,0.874741004712,1.),.UNSPECIFIED.);
#193 = CARTESIAN_POINT('',(5.057225788181,-1.036134107609,1.191731011276
));
#194 = CARTESIAN_POINT('',(5.025279456423,-1.029205762313,1.154684717645
));
#195 = CARTESIAN_POINT('',(4.991921574627,-1.026695820783,1.118684064784
));
#196 = CARTESIAN_POINT('',(4.95777405,-1.028970254034,1.084415149948));
#197 = CARTESIAN_POINT('',(4.923617121805,-1.036346107495,1.052692402889
));
#198 = CARTESIAN_POINT('',(4.890418438597,-1.048996645118,1.024457930496
));
#199 = CARTESIAN_POINT('',(4.859299454475,-1.066788308679,1.000734741576
));
#200 = CARTESIAN_POINT('',(4.815839586755,-1.101561514238,0.972218931899
));
#201 = CARTESIAN_POINT('',(4.801321398404,-1.115352086698,0.963703907048
));
#202 = CARTESIAN_POINT('',(4.787948689835,-1.130451687434,0.956978215264
));
#203 = CARTESIAN_POINT('',(4.775896904505,-1.14672221038,0.952168694703)
);
#204 = CARTESIAN_POINT('',(4.765316144245,-1.163984517024,0.94936568899)
);
#205 = CARTESIAN_POINT('',(4.756317666424,-1.182024282749,0.948609528803
));
#206 = CARTESIAN_POINT('',(4.741377759557,-1.219757418491,0.951184725237
));
#207 = CARTESIAN_POINT('',(4.735535969752,-1.239492341884,0.954643243993
));
#208 = CARTESIAN_POINT('',(4.731502077966,-1.259555571761,0.960232299814
));
#209 = CARTESIAN_POINT('',(4.729274770828,-1.279697576454,0.967865011463
));
#210 = CARTESIAN_POINT('',(4.728801873078,-1.299695501165,0.977410652272
));
#211 = CARTESIAN_POINT('',(4.729998450435,-1.319363294086,0.988715099016
));
#212 = CARTESIAN_POINT('',(4.734258775827,-1.34889676773,1.008578921954)
);
#213 = CARTESIAN_POINT('',(4.736208444547,-1.359104606044,1.016004109712
));
#214 = CARTESIAN_POINT('',(4.738599845535,-1.369149928269,1.023870646883
));
#215 = CARTESIAN_POINT('',(4.741416635932,-1.379012271958,1.032153669782
));
#216 = CARTESIAN_POINT('',(4.744641936967,-1.388673668133,1.040828339111
));
#217 = CARTESIAN_POINT('',(4.748258828268,-1.398118425672,1.049870267752
));
#218 = CARTESIAN_POINT('',(4.763798320882,-1.433987163453,1.086405390455
));
#219 = CARTESIAN_POINT('',(4.778479740299,-1.45870340824,1.116419663908)
);
#220 = CARTESIAN_POINT('',(4.795897167751,-1.481169300384,1.148739978512
));
#221 = CARTESIAN_POINT('',(4.815675565877,-1.501167646383,1.182834985174
));
#222 = CARTESIAN_POINT('',(4.837481840956,-1.51853503987,1.218205356758)
);
#223 = CARTESIAN_POINT('',(4.861024326931,-1.533123935715,1.254367437087
));
#224 = CARTESIAN_POINT('',(4.910292704239,-1.556063943591,1.326173752603
));
#225 = CARTESIAN_POINT('',(4.935910534959,-1.56457867865,1.361769736452)
);
#226 = CARTESIAN_POINT('',(4.962645209706,-1.570173063421,1.397154651859
));
#227 = CARTESIAN_POINT('',(4.990237670789,-1.57266792512,1.431806478265)
);
#228 = CARTESIAN_POINT('',(5.018370852672,-1.571852756634,1.465078031867
));
#229 = CARTESIAN_POINT('',(5.046637199739,-1.567518471997,1.496194586552
));
#230 = CARTESIAN_POINT('',(5.097425908739,-1.55293565219,1.547403230561)
);
#231 = CARTESIAN_POINT('',(5.120071675921,-1.543878868243,1.56846893184)
);
#232 = CARTESIAN_POINT('',(5.142130251926,-1.532270744854,1.586995127011
));
#233 = CARTESIAN_POINT('',(5.163205300443,-1.518095610965,1.602437634832
));
#234 = CARTESIAN_POINT('',(5.182833473699,-1.501446770683,1.614273552592
));
#235 = CARTESIAN_POINT('',(5.200545209057,-1.482602027589,1.622170541406
));
#236 = CARTESIAN_POINT('',(5.231233994406,-1.441692310114,1.629974675087
));
#237 = CARTESIAN_POINT('',(5.244273455886,-1.419659873172,1.629980373562
));
#238 = CARTESIAN_POINT('',(5.254744263687,-1.396375215503,1.626069385383
));
#239 = CARTESIAN_POINT('',(5.26249665643,-1.372349839592,1.618530976421)
);
#240 = CARTESIAN_POINT('',(5.267543899646,-1.348048697817,1.6078096564)
);
#241 = CARTESIAN_POINT('',(5.27,-1.323839670376,1.594371727787));
#242 = CARTESIAN_POINT('',(5.27,-1.3,1.578616610744));
#243 = TOROIDAL_SURFACE('',#244,1.792682926829,1.707317073171);
#244 = AXIS2_PLACEMENT_3D('',#245,#246,#247);
#245 = CARTESIAN_POINT('',(2.5,-0.692682926829,3.53));
#246 = DIRECTION('',(8.049601073684E-033,-1.,3.756480501052E-032));
#247 = DIRECTION('',(1.,8.049601073684E-033,-1.832429512709E-032));
#248 = ADVANCED_FACE('',(#249),#252,.F.);
#249 = FACE_BOUND('',#250,.F.);
#250 = EDGE_LOOP('',(#251));
#251 = ORIENTED_EDGE('',*,*,#64,.T.);
#252 = PLANE('',#253);
#253 = AXIS2_PLACEMENT_3D('',#254,#255,#256);
#254 = CARTESIAN_POINT('',(2.5,1.1,3.53));
#255 = DIRECTION('',(8.049601073684E-033,-1.,3.756480501052E-032));
#256 = DIRECTION('',(0.E+000,-3.756480501052E-032,-1.));
#257 = ADVANCED_FACE('',(#258),#278,.T.);
#258 = FACE_BOUND('',#259,.T.);
#259 = EDGE_LOOP('',(#260,#261,#269,#276,#277));
#260 = ORIENTED_EDGE('',*,*,#107,.T.);
#261 = ORIENTED_EDGE('',*,*,#262,.T.);
#262 = EDGE_CURVE('',#75,#263,#265,.T.);
#263 = VERTEX_POINT('',#264);
#264 = CARTESIAN_POINT('',(0.27,-8.589033614938E-033,-2.892));
#265 = LINE('',#266,#267);
#266 = CARTESIAN_POINT('',(0.27,0.E+000,3.53));
#267 = VECTOR('',#268,1.);
#268 = DIRECTION('',(-0.E+000,-0.E+000,-1.));
#269 = ORIENTED_EDGE('',*,*,#270,.T.);
#270 = EDGE_CURVE('',#263,#263,#271,.T.);
#271 = CIRCLE('',#272,0.27);
#272 = AXIS2_PLACEMENT_3D('',#273,#274,#275);
#273 = CARTESIAN_POINT('',(-7.243018313321E-031,5.152639112584E-031,
-2.892));
#274 = DIRECTION('',(1.127201796441E-031,-7.952808902721E-032,1.));
#275 = DIRECTION('',(1.,-1.940196092123E-030,-1.127201796441E-031));
#276 = ORIENTED_EDGE('',*,*,#262,.F.);
#277 = ORIENTED_EDGE('',*,*,#74,.T.);
#278 = CYLINDRICAL_SURFACE('',#279,0.27);
#279 = AXIS2_PLACEMENT_3D('',#280,#281,#282);
#280 = CARTESIAN_POINT('',(0.E+000,0.E+000,3.53));
#281 = DIRECTION('',(0.E+000,0.E+000,1.));
#282 = DIRECTION('',(1.,0.E+000,0.E+000));
#283 = ADVANCED_FACE('',(#284),#287,.T.);
#284 = FACE_BOUND('',#285,.T.);
#285 = EDGE_LOOP('',(#286));
#286 = ORIENTED_EDGE('',*,*,#160,.T.);
#287 = PLANE('',#288);
#288 = AXIS2_PLACEMENT_3D('',#289,#290,#291);
#289 = CARTESIAN_POINT('',(2.5,-2.4,3.53));
#290 = DIRECTION('',(8.049601073684E-033,-1.,3.756480501052E-032));
#291 = DIRECTION('',(0.E+000,-3.756480501052E-032,-1.));
#292 = ADVANCED_FACE('',(#293),#313,.T.);
#293 = FACE_BOUND('',#294,.T.);
#294 = EDGE_LOOP('',(#295,#296,#304,#311,#312));
#295 = ORIENTED_EDGE('',*,*,#170,.F.);
#296 = ORIENTED_EDGE('',*,*,#297,.T.);
#297 = EDGE_CURVE('',#171,#298,#300,.T.);
#298 = VERTEX_POINT('',#299);
#299 = CARTESIAN_POINT('',(5.27,-1.3,-2.892));
#300 = LINE('',#301,#302);
#301 = CARTESIAN_POINT('',(5.27,-1.3,3.53));
#302 = VECTOR('',#303,1.);
#303 = DIRECTION('',(-0.E+000,-0.E+000,-1.));
#304 = ORIENTED_EDGE('',*,*,#305,.T.);
#305 = EDGE_CURVE('',#298,#298,#306,.T.);
#306 = CIRCLE('',#307,0.27);
#307 = AXIS2_PLACEMENT_3D('',#308,#309,#310);
#308 = CARTESIAN_POINT('',(5.,-1.3,-2.892));
#309 = DIRECTION('',(0.E+000,0.E+000,1.));
#310 = DIRECTION('',(1.,0.E+000,0.E+000));
#311 = ORIENTED_EDGE('',*,*,#297,.F.);
#312 = ORIENTED_EDGE('',*,*,#191,.F.);
#313 = CYLINDRICAL_SURFACE('',#314,0.27);
#314 = AXIS2_PLACEMENT_3D('',#315,#316,#317);
#315 = CARTESIAN_POINT('',(5.,-1.3,3.53));
#316 = DIRECTION('',(0.E+000,0.E+000,1.));
#317 = DIRECTION('',(1.,0.E+000,0.E+000));
#318 = ADVANCED_FACE('',(#319),#339,.T.);
#319 = FACE_BOUND('',#320,.F.);
#320 = EDGE_LOOP('',(#321,#330,#331,#332));
#321 = ORIENTED_EDGE('',*,*,#322,.F.);
#322 = EDGE_CURVE('',#263,#323,#325,.T.);
#323 = VERTEX_POINT('',#324);
#324 = CARTESIAN_POINT('',(0.162,2.095411779493E-031,-3.));
#325 = CIRCLE('',#326,0.108);
#326 = AXIS2_PLACEMENT_3D('',#327,#328,#329);
#327 = CARTESIAN_POINT('',(0.162,2.009521443344E-031,-2.892));
#328 = DIRECTION('',(1.940196092123E-030,1.,7.952808902721E-032));
#329 = DIRECTION('',(1.,-1.940196092123E-030,-1.127201796441E-031));
#330 = ORIENTED_EDGE('',*,*,#270,.T.);
#331 = ORIENTED_EDGE('',*,*,#322,.T.);
#332 = ORIENTED_EDGE('',*,*,#333,.F.);
#333 = EDGE_CURVE('',#323,#323,#334,.T.);
#334 = CIRCLE('',#335,0.162);
#335 = AXIS2_PLACEMENT_3D('',#336,#337,#338);
#336 = CARTESIAN_POINT('',(-7.364756107337E-031,5.238529448733E-031,-3.)
);
#337 = DIRECTION('',(1.127201796441E-031,-7.952808902721E-032,1.));
#338 = DIRECTION('',(1.,-1.940196092123E-030,-1.127201796441E-031));
#339 = TOROIDAL_SURFACE('',#340,0.162,0.108);
#340 = AXIS2_PLACEMENT_3D('',#341,#342,#343);
#341 = CARTESIAN_POINT('',(-7.243018313321E-031,5.152639112584E-031,
-2.892));
#342 = DIRECTION('',(-1.127201796441E-031,7.952808902721E-032,-1.));
#343 = DIRECTION('',(1.,-1.940196092123E-030,-1.127201796441E-031));
#344 = ADVANCED_FACE('',(#345),#365,.T.);
#345 = FACE_BOUND('',#346,.F.);
#346 = EDGE_LOOP('',(#347,#356,#357,#358));
#347 = ORIENTED_EDGE('',*,*,#348,.F.);
#348 = EDGE_CURVE('',#298,#349,#351,.T.);
#349 = VERTEX_POINT('',#350);
#350 = CARTESIAN_POINT('',(5.162,-1.3,-3.));
#351 = CIRCLE('',#352,0.108);
#352 = AXIS2_PLACEMENT_3D('',#353,#354,#355);
#353 = CARTESIAN_POINT('',(5.162,-1.3,-2.892));
#354 = DIRECTION('',(-0.E+000,1.,0.E+000));
#355 = DIRECTION('',(1.,0.E+000,0.E+000));
#356 = ORIENTED_EDGE('',*,*,#305,.T.);
#357 = ORIENTED_EDGE('',*,*,#348,.T.);
#358 = ORIENTED_EDGE('',*,*,#359,.F.);
#359 = EDGE_CURVE('',#349,#349,#360,.T.);
#360 = CIRCLE('',#361,0.162);
#361 = AXIS2_PLACEMENT_3D('',#362,#363,#364);
#362 = CARTESIAN_POINT('',(5.,-1.3,-3.));
#363 = DIRECTION('',(0.E+000,0.E+000,1.));
#364 = DIRECTION('',(1.,0.E+000,0.E+000));
#365 = TOROIDAL_SURFACE('',#366,0.162,0.108);
#366 = AXIS2_PLACEMENT_3D('',#367,#368,#369);
#367 = CARTESIAN_POINT('',(5.,-1.3,-2.892));
#368 = DIRECTION('',(-0.E+000,-0.E+000,-1.));
#369 = DIRECTION('',(1.,0.E+000,0.E+000));
#370 = ADVANCED_FACE('',(#371),#374,.F.);
#371 = FACE_BOUND('',#372,.F.);
#372 = EDGE_LOOP('',(#373));
#373 = ORIENTED_EDGE('',*,*,#333,.T.);
#374 = PLANE('',#375);
#375 = AXIS2_PLACEMENT_3D('',#376,#377,#378);
#376 = CARTESIAN_POINT('',(-1.978356673234E-017,2.854531227236E-017,-3.)
);
#377 = DIRECTION('',(1.127201796441E-031,-7.952808902721E-032,1.));
#378 = DIRECTION('',(1.,0.E+000,-1.127201796441E-031));
#379 = ADVANCED_FACE('',(#380),#383,.F.);
#380 = FACE_BOUND('',#381,.F.);
#381 = EDGE_LOOP('',(#382));
#382 = ORIENTED_EDGE('',*,*,#359,.T.);
#383 = PLANE('',#384);
#384 = AXIS2_PLACEMENT_3D('',#385,#386,#387);
#385 = CARTESIAN_POINT('',(5.,-1.3,-3.));
#386 = DIRECTION('',(0.E+000,0.E+000,1.));
#387 = DIRECTION('',(1.,0.E+000,0.E+000));
#388 = ( GEOMETRIC_REPRESENTATION_CONTEXT(3)
GLOBAL_UNCERTAINTY_ASSIGNED_CONTEXT((#392)) GLOBAL_UNIT_ASSIGNED_CONTEXT
((#389,#390,#391)) REPRESENTATION_CONTEXT('Context #1',
'3D Context with UNIT and UNCERTAINTY') );
#389 = ( LENGTH_UNIT() NAMED_UNIT(*) SI_UNIT(.MILLI.,.METRE.) );
#390 = ( NAMED_UNIT(*) PLANE_ANGLE_UNIT() SI_UNIT($,.RADIAN.) );
#391 = ( NAMED_UNIT(*) SI_UNIT($,.STERADIAN.) SOLID_ANGLE_UNIT() );
#392 = UNCERTAINTY_MEASURE_WITH_UNIT(LENGTH_MEASURE(1.E-007),#389,
'distance_accuracy_value','confusion accuracy');
#393 = PRODUCT_RELATED_PRODUCT_CATEGORY('part',$,(#7));
#394 = MECHANICAL_DESIGN_GEOMETRIC_PRESENTATION_REPRESENTATION('',(#395,
#403,#410,#417,#424,#432,#439,#446,#453,#460,#467),#388);
#395 = STYLED_ITEM('color',(#396),#17);
#396 = PRESENTATION_STYLE_ASSIGNMENT((#397));
#397 = SURFACE_STYLE_USAGE(.BOTH.,#398);
#398 = SURFACE_SIDE_STYLE('',(#399));
#399 = SURFACE_STYLE_FILL_AREA(#400);
#400 = FILL_AREA_STYLE('',(#401));
#401 = FILL_AREA_STYLE_COLOUR('',#402);
#402 = COLOUR_RGB('',0.136999994516,0.402000010014,0.726999998093);
#403 = STYLED_ITEM('color',(#404),#50);
#404 = PRESENTATION_STYLE_ASSIGNMENT((#405));
#405 = SURFACE_STYLE_USAGE(.BOTH.,#406);
#406 = SURFACE_SIDE_STYLE('',(#407));
#407 = SURFACE_STYLE_FILL_AREA(#408);
#408 = FILL_AREA_STYLE('',(#409));
#409 = FILL_AREA_STYLE_COLOUR('',#402);
#410 = STYLED_ITEM('color',(#411),#146);
#411 = PRESENTATION_STYLE_ASSIGNMENT((#412));
#412 = SURFACE_STYLE_USAGE(.BOTH.,#413);
#413 = SURFACE_SIDE_STYLE('',(#414));
#414 = SURFACE_STYLE_FILL_AREA(#415);
#415 = FILL_AREA_STYLE('',(#416));
#416 = FILL_AREA_STYLE_COLOUR('',#402);
#417 = STYLED_ITEM('color',(#418),#248);
#418 = PRESENTATION_STYLE_ASSIGNMENT((#419));
#419 = SURFACE_STYLE_USAGE(.BOTH.,#420);
#420 = SURFACE_SIDE_STYLE('',(#421));
#421 = SURFACE_STYLE_FILL_AREA(#422);
#422 = FILL_AREA_STYLE('',(#423));
#423 = FILL_AREA_STYLE_COLOUR('',#402);
#424 = STYLED_ITEM('color',(#425),#257);
#425 = PRESENTATION_STYLE_ASSIGNMENT((#426));
#426 = SURFACE_STYLE_USAGE(.BOTH.,#427);
#427 = SURFACE_SIDE_STYLE('',(#428));
#428 = SURFACE_STYLE_FILL_AREA(#429);
#429 = FILL_AREA_STYLE('',(#430));
#430 = FILL_AREA_STYLE_COLOUR('',#431);
#431 = COLOUR_RGB('',0.824000000954,0.819999992847,0.78100001812);
#432 = STYLED_ITEM('color',(#433),#283);
#433 = PRESENTATION_STYLE_ASSIGNMENT((#434));
#434 = SURFACE_STYLE_USAGE(.BOTH.,#435);
#435 = SURFACE_SIDE_STYLE('',(#436));
#436 = SURFACE_STYLE_FILL_AREA(#437);
#437 = FILL_AREA_STYLE('',(#438));
#438 = FILL_AREA_STYLE_COLOUR('',#402);
#439 = STYLED_ITEM('color',(#440),#292);
#440 = PRESENTATION_STYLE_ASSIGNMENT((#441));
#441 = SURFACE_STYLE_USAGE(.BOTH.,#442);
#442 = SURFACE_SIDE_STYLE('',(#443));
#443 = SURFACE_STYLE_FILL_AREA(#444);
#444 = FILL_AREA_STYLE('',(#445));
#445 = FILL_AREA_STYLE_COLOUR('',#431);
#446 = STYLED_ITEM('color',(#447),#318);
#447 = PRESENTATION_STYLE_ASSIGNMENT((#448));
#448 = SURFACE_STYLE_USAGE(.BOTH.,#449);
#449 = SURFACE_SIDE_STYLE('',(#450));
#450 = SURFACE_STYLE_FILL_AREA(#451);
#451 = FILL_AREA_STYLE('',(#452));
#452 = FILL_AREA_STYLE_COLOUR('',#431);
#453 = STYLED_ITEM('color',(#454),#344);
#454 = PRESENTATION_STYLE_ASSIGNMENT((#455));
#455 = SURFACE_STYLE_USAGE(.BOTH.,#456);
#456 = SURFACE_SIDE_STYLE('',(#457));
#457 = SURFACE_STYLE_FILL_AREA(#458);
#458 = FILL_AREA_STYLE('',(#459));
#459 = FILL_AREA_STYLE_COLOUR('',#431);
#460 = STYLED_ITEM('color',(#461),#370);
#461 = PRESENTATION_STYLE_ASSIGNMENT((#462));
#462 = SURFACE_STYLE_USAGE(.BOTH.,#463);
#463 = SURFACE_SIDE_STYLE('',(#464));
#464 = SURFACE_STYLE_FILL_AREA(#465);
#465 = FILL_AREA_STYLE('',(#466));
#466 = FILL_AREA_STYLE_COLOUR('',#431);
#467 = STYLED_ITEM('color',(#468),#379);
#468 = PRESENTATION_STYLE_ASSIGNMENT((#469));
#469 = SURFACE_STYLE_USAGE(.BOTH.,#470);
#470 = SURFACE_SIDE_STYLE('',(#471));
#471 = SURFACE_STYLE_FILL_AREA(#472);
#472 = FILL_AREA_STYLE('',(#473));
#473 = FILL_AREA_STYLE_COLOUR('',#431);
ENDSEC;
END-ISO-10303-21;
