ISO-10303-21;
HEADER;
/* RV_Disc_D21.5mm_W5.8mm_P10mm.step 3D STEP model for use in ECAD systems
 * Copyright (C) 2018, kicad StepUp
 * 
 * This work is licensed under the [Creative Commons CC-BY-SA 4.0 License](https://creativecommons.org/licenses/by-sa/4.0/legalcode), 
 * with the following exception:
 * To the extent that the creation of electronic designs that use 'Licensed Material' can be considered to be 'Adapted Material', 
 * then the copyright holder waives article 3 of the license with respect to these designs and any generated files which use data provided 
 * as part of the 'Licensed Material'.
 * You are free to use the library data in your own projects without the obligation to share your project files under this or any other license agreement.
 * However, if you wish to redistribute these libraries, or parts thereof (including in modified form) as a collection then the exception above does not apply. 
 * Please refer to https://github.com/KiCad/kicad-packages3D/blob/master/LICENSE.md for further clarification of the exception.
 * Disclaimer of Warranties and Limitation of Liability.
 * These libraries are provided in the hope that they will be useful, but are provided without warranty of any kind, express or implied.
 * *USE 3D CAD DATA AT YOUR OWN RISK*
 * *DO NOT RELY UPON ANY INFORMATION FOUND HERE WITHOUT INDEPENDENT VERIFICATION.*
 * 
 */

FILE_DESCRIPTION(
/* description */ ('model of RV_Disc_D21.5mm_W5.8mm_P10mm'),
/* implementation_level */ '2;1');

FILE_NAME(
/* name */ 'RV_Disc_D21.5mm_W5.8mm_P10mm.step',
/* time_stamp */ '2018-11-11T21:04:20',
/* author */ ('kicad StepUp','ksu'),
/* organization */ ('FreeCAD'),
/* preprocessor_version */ 'OCC',
/* originating_system */ 'kicad StepUp',
/* authorisation */ '');

FILE_SCHEMA(('AUTOMOTIVE_DESIGN { 1 0 10303 214 1 1 1 1 }'));
ENDSEC;

DATA;
#1 = APPLICATION_PROTOCOL_DEFINITION('international standard',
'automotive_design',2000,#2);
#2 = APPLICATION_CONTEXT(
'core data for automotive mechanical design processes');
#3 = SHAPE_DEFINITION_REPRESENTATION(#4,#10);
#4 = PRODUCT_DEFINITION_SHAPE('','',#5);
#5 = PRODUCT_DEFINITION('design','',#6,#9);
#6 = PRODUCT_DEFINITION_FORMATION('','',#7);
#7 = PRODUCT('RV_Disc_D215mm_W58mm_P10mm','RV_Disc_D215mm_W58mm_P10mm',
'',(#8));
#8 = PRODUCT_CONTEXT('',#2,'mechanical');
#9 = PRODUCT_DEFINITION_CONTEXT('part definition',#2,'design');
#10 = ADVANCED_BREP_SHAPE_REPRESENTATION('',(#11,#15),#414);
#11 = AXIS2_PLACEMENT_3D('',#12,#13,#14);
#12 = CARTESIAN_POINT('',(0.E+000,0.E+000,0.E+000));
#13 = DIRECTION('',(0.E+000,0.E+000,1.));
#14 = DIRECTION('',(1.,0.E+000,-0.E+000));
#15 = MANIFOLD_SOLID_BREP('',#16);
#16 = CLOSED_SHELL('',(#17,#50,#162,#274,#283,#309,#318,#344,#370,#396,
#405));
#17 = ADVANCED_FACE('',(#18),#45,.T.);
#18 = FACE_BOUND('',#19,.F.);
#19 = EDGE_LOOP('',(#20,#30,#37,#38));
#20 = ORIENTED_EDGE('',*,*,#21,.T.);
#21 = EDGE_CURVE('',#22,#24,#26,.T.);
#22 = VERTEX_POINT('',#23);
#23 = CARTESIAN_POINT('',(15.75,-1.229268292683,10.78));
#24 = VERTEX_POINT('',#25);
#25 = CARTESIAN_POINT('',(15.75,-1.370731707317,10.78));
#26 = LINE('',#27,#28);
#27 = CARTESIAN_POINT('',(15.75,1.6,10.78));
#28 = VECTOR('',#29,1.);
#29 = DIRECTION('',(0.E+000,-1.,0.E+000));
#30 = ORIENTED_EDGE('',*,*,#31,.T.);
#31 = EDGE_CURVE('',#24,#24,#32,.T.);
#32 = CIRCLE('',#33,10.75);
#33 = AXIS2_PLACEMENT_3D('',#34,#35,#36);
#34 = CARTESIAN_POINT('',(5.,-1.370731707317,10.78));
#35 = DIRECTION('',(1.137711779659E-033,-1.,-3.413135338977E-033));
#36 = DIRECTION('',(1.,1.137711779659E-033,8.982954040189E-034));
#37 = ORIENTED_EDGE('',*,*,#21,.F.);
#38 = ORIENTED_EDGE('',*,*,#39,.F.);
#39 = EDGE_CURVE('',#22,#22,#40,.T.);
#40 = CIRCLE('',#41,10.75);
#41 = AXIS2_PLACEMENT_3D('',#42,#43,#44);
#42 = CARTESIAN_POINT('',(5.,-1.229268292683,10.78));
#43 = DIRECTION('',(1.137711779659E-033,-1.,-3.413135338977E-033));
#44 = DIRECTION('',(1.,1.137711779659E-033,-8.982954040189E-034));
#45 = CYLINDRICAL_SURFACE('',#46,10.75);
#46 = AXIS2_PLACEMENT_3D('',#47,#48,#49);
#47 = CARTESIAN_POINT('',(5.,1.6,10.78));
#48 = DIRECTION('',(0.E+000,1.,0.E+000));
#49 = DIRECTION('',(1.,0.E+000,0.E+000));
#50 = ADVANCED_FACE('',(#51,#71),#157,.T.);
#51 = FACE_BOUND('',#52,.F.);
#52 = EDGE_LOOP('',(#53,#54,#63,#70));
#53 = ORIENTED_EDGE('',*,*,#39,.T.);
#54 = ORIENTED_EDGE('',*,*,#55,.T.);
#55 = EDGE_CURVE('',#22,#56,#58,.T.);
#56 = VERTEX_POINT('',#57);
#57 = CARTESIAN_POINT('',(12.920731707317,1.6,10.78));
#58 = CIRCLE('',#59,2.829268292683);
#59 = AXIS2_PLACEMENT_3D('',#60,#61,#62);
#60 = CARTESIAN_POINT('',(12.920731707317,-1.229268292683,10.78));
#61 = DIRECTION('',(8.982954040189E-034,-3.413135338977E-033,1.));
#62 = DIRECTION('',(1.,1.137711779659E-033,-8.982954040189E-034));
#63 = ORIENTED_EDGE('',*,*,#64,.F.);
#64 = EDGE_CURVE('',#56,#56,#65,.T.);
#65 = CIRCLE('',#66,7.920731707317);
#66 = AXIS2_PLACEMENT_3D('',#67,#68,#69);
#67 = CARTESIAN_POINT('',(5.,1.6,10.78));
#68 = DIRECTION('',(1.137711779659E-033,-1.,-3.413135338977E-033));
#69 = DIRECTION('',(1.,1.137711779659E-033,-8.982954040189E-034));
#70 = ORIENTED_EDGE('',*,*,#55,.F.);
#71 = FACE_BOUND('',#72,.F.);
#72 = EDGE_LOOP('',(#73,#110));
#73 = ORIENTED_EDGE('',*,*,#74,.T.);
#74 = EDGE_CURVE('',#75,#77,#79,.T.);
#75 = VERTEX_POINT('',#76);
#76 = CARTESIAN_POINT('',(0.45,0.E+000,1.351457769133));
#77 = VERTEX_POINT('',#78);
#78 = CARTESIAN_POINT('',(-0.262137090864,-0.365765150873,1.561090362885
));
#79 = B_SPLINE_CURVE_WITH_KNOTS('',8,(#80,#81,#82,#83,#84,#85,#86,#87,
#88,#89,#90,#91,#92,#93,#94,#95,#96,#97,#98,#99,#100,#101,#102,#103,
#104,#105,#106,#107,#108,#109),.UNSPECIFIED.,.F.,.F.,(9,7,7,7,9),(
0.E+000,8.811443214957E-002,0.266008549791,0.478875285878,1.),
.UNSPECIFIED.);
#80 = CARTESIAN_POINT('',(0.45,-5.551115123126E-017,1.351457769133));
#81 = CARTESIAN_POINT('',(0.45,-1.019248616554E-002,1.34599839784));
#82 = CARTESIAN_POINT('',(0.449736219449,-2.042328527713E-002,
1.340710241746));
#83 = CARTESIAN_POINT('',(0.449205070648,-3.068505566699E-002,
1.335599020061));
#84 = CARTESIAN_POINT('',(0.448403259887,-4.097004126196E-002,
1.330670302656));
#85 = CARTESIAN_POINT('',(0.447327787446,-5.127007158347E-002,
1.325929510061));
#86 = CARTESIAN_POINT('',(0.445975947592,-6.157656174755E-002,
1.321381913469));
#87 = CARTESIAN_POINT('',(0.444345328585,-7.188051246481E-002,
1.317032634733));
#88 = CARTESIAN_POINT('',(0.438574655564,-0.102951011165,1.304516315602)
);
#89 = CARTESIAN_POINT('',(0.433570585058,-0.123682093378,1.296973831296)
);
#90 = CARTESIAN_POINT('',(0.427405179737,-0.144286968635,1.290300368009)
);
#91 = CARTESIAN_POINT('',(0.420069357968,-0.164680883328,1.284532161641)
);
#92 = CARTESIAN_POINT('',(0.411562878075,-0.184774589815,1.279699337575)
);
#93 = CARTESIAN_POINT('',(0.401895838503,-0.204475817953,1.275824738816)
);
#94 = CARTESIAN_POINT('',(0.39109017799,-0.223690746628,1.272922754131)
);
#95 = CARTESIAN_POINT('',(0.364930955007,-0.264623648606,1.268695175102)
);
#96 = CARTESIAN_POINT('',(0.349098348791,-0.286095357509,1.267791246847)
);
#97 = CARTESIAN_POINT('',(0.331743423776,-0.306578170152,1.268295759365)
);
#98 = CARTESIAN_POINT('',(0.312948416062,-0.325920274835,1.270197118403)
);
#99 = CARTESIAN_POINT('',(0.292815116565,-0.343982678257,1.27346545932)
);
#100 = CARTESIAN_POINT('',(0.271462256437,-0.360641403771,1.278055368879
));
#101 = CARTESIAN_POINT('',(0.249022892478,-0.375789689644,1.283908607046
));
#102 = CARTESIAN_POINT('',(0.168401900408,-0.422513520784,1.308211767765
));
#103 = CARTESIAN_POINT('',(0.105028365978,-0.44639405837,1.33277592484)
);
#104 = CARTESIAN_POINT('',(3.807152959306E-002,-0.459062133557,
1.363682025506));
#105 = CARTESIAN_POINT('',(-2.950058012677E-002,-0.460028449354,
1.399243609047));
#106 = CARTESIAN_POINT('',(-9.506810004303E-002,-0.449876217387,
1.437899760148));
#107 = CARTESIAN_POINT('',(-0.156568864979,-0.429804968101,
1.478380192685));
#108 = CARTESIAN_POINT('',(-0.212571985318,-0.401287541525,
1.519689832667));
#109 = CARTESIAN_POINT('',(-0.262137090864,-0.365765150873,
1.561090362885));
#110 = ORIENTED_EDGE('',*,*,#111,.T.);
#111 = EDGE_CURVE('',#77,#75,#112,.T.);
#112 = B_SPLINE_CURVE_WITH_KNOTS('',7,(#113,#114,#115,#116,#117,#118,
#119,#120,#121,#122,#123,#124,#125,#126,#127,#128,#129,#130,#131,
#132,#133,#134,#135,#136,#137,#138,#139,#140,#141,#142,#143,#144,
#145,#146,#147,#148,#149,#150,#151,#152,#153,#154,#155,#156),
.UNSPECIFIED.,.F.,.F.,(8,6,6,6,6,6,6,8),(0.E+000,8.76869119593E-002,
0.349775938176,0.406776676376,0.501843473176,0.636978469418,
0.796199714418,1.),.UNSPECIFIED.);
#113 = CARTESIAN_POINT('',(-0.262137090864,-0.365765150873,
1.561090362885));
#114 = CARTESIAN_POINT('',(-0.280885802035,-0.352328297767,
1.576750706484));
#115 = CARTESIAN_POINT('',(-0.298728781001,-0.337843461053,
1.592453230543));
#116 = CARTESIAN_POINT('',(-0.315613604297,-0.322381525319,
1.608162159944));
#117 = CARTESIAN_POINT('',(-0.331493357238,-0.306013376385,
1.623844667729));
#118 = CARTESIAN_POINT('',(-0.34632599908,-0.288809707018,1.639469966634
));
#119 = CARTESIAN_POINT('',(-0.360073728172,-0.270840822646,
1.655008400621));
#120 = CARTESIAN_POINT('',(-0.41044825883,-0.196390151191,1.716526042137
));
#121 = CARTESIAN_POINT('',(-0.438149835883,-0.134459084037,1.76152568013
));
#122 = CARTESIAN_POINT('',(-0.455003963665,-6.817823656303E-002,
1.804729604909));
#123 = CARTESIAN_POINT('',(-0.460300281273,6.483523551402E-004,
1.845331954048));
#124 = CARTESIAN_POINT('',(-0.453486843313,7.00017791188E-002,
1.882248203003));
#125 = CARTESIAN_POINT('',(-0.434239608371,0.137646691417,1.913888630605
));
#126 = CARTESIAN_POINT('',(-0.395749218649,0.2147546526,1.94331320549));
#127 = CARTESIAN_POINT('',(-0.388291189567,0.228319560992,1.948213997886
));
#128 = CARTESIAN_POINT('',(-0.380253464797,0.241646596335,1.952736504974
));
#129 = CARTESIAN_POINT('',(-0.371640575693,0.254705562023,1.956856490841
));
#130 = CARTESIAN_POINT('',(-0.362459493251,0.267464983151,1.96054884649)
);
#131 = CARTESIAN_POINT('',(-0.352720122374,0.279892457415,1.963788146643
));
#132 = CARTESIAN_POINT('',(-0.325283422579,0.312073128902,1.971154149016
));
#133 = CARTESIAN_POINT('',(-0.306613410541,0.331178267846,1.974429305849
));
#134 = CARTESIAN_POINT('',(-0.286490221081,0.349113629823,1.976256993049
));
#135 = CARTESIAN_POINT('',(-0.265006436531,0.365719332558,1.976523364278
));
#136 = CARTESIAN_POINT('',(-0.242288585325,0.380841070291,1.975130981906
));
#137 = CARTESIAN_POINT('',(-0.218498969562,0.394341449416,1.97201415982)
);
#138 = CARTESIAN_POINT('',(-0.158772160657,0.422848362016,1.960252861584
));
#139 = CARTESIAN_POINT('',(-0.121909582929,0.436106622986,1.949826109795
));
#140 = CARTESIAN_POINT('',(-8.384121080173E-002,0.445552209456,
1.935826478575));
#141 = CARTESIAN_POINT('',(-4.524636005421E-002,0.451030715207,
1.918414612541));
#142 = CARTESIAN_POINT('',(-6.821005396158E-003,0.452581868945,
1.897987233224));
#143 = CARTESIAN_POINT('',(3.07758284388E-002,0.450435283112,
1.875142336071));
#144 = CARTESIAN_POINT('',(0.109598104066,0.438574109822,1.821649505619)
);
#145 = CARTESIAN_POINT('',(0.15039742812,0.427560411065,1.790254006383)
);
#146 = CARTESIAN_POINT('',(0.188954384678,0.412472430132,1.75714632627)
);
#147 = CARTESIAN_POINT('',(0.225019419487,0.393782196569,1.722995793066)
);
#148 = CARTESIAN_POINT('',(0.258434604013,0.371882298703,1.688353698926)
);
#149 = CARTESIAN_POINT('',(0.289079150939,0.347073125724,1.653655067386)
);
#150 = CARTESIAN_POINT('',(0.352339018216,0.284355726212,1.575237730377)
);
#151 = CARTESIAN_POINT('',(0.38304754577,0.244780769375,1.531783428163)
);
#152 = CARTESIAN_POINT('',(0.408659321508,0.201347969663,1.48970594425)
);
#153 = CARTESIAN_POINT('',(0.428742884122,0.154504750001,1.449789486937)
);
#154 = CARTESIAN_POINT('',(0.442732140675,0.104789049033,1.412868056455)
);
#155 = CARTESIAN_POINT('',(0.45,5.294448149595E-002,1.37981626555));
#156 = CARTESIAN_POINT('',(0.45,-5.551115123126E-017,1.351457769133));
#157 = TOROIDAL_SURFACE('',#158,7.920731707317,2.829268292683);
#158 = AXIS2_PLACEMENT_3D('',#159,#160,#161);
#159 = CARTESIAN_POINT('',(5.,-1.229268292683,10.78));
#160 = DIRECTION('',(-1.137711779659E-033,1.,3.413135338977E-033));
#161 = DIRECTION('',(1.,1.137711779659E-033,-8.982954040189E-034));
#162 = ADVANCED_FACE('',(#163,#183),#269,.T.);
#163 = FACE_BOUND('',#164,.T.);
#164 = EDGE_LOOP('',(#165,#166,#175,#182));
#165 = ORIENTED_EDGE('',*,*,#31,.T.);
#166 = ORIENTED_EDGE('',*,*,#167,.T.);
#167 = EDGE_CURVE('',#24,#168,#170,.T.);
#168 = VERTEX_POINT('',#169);
#169 = CARTESIAN_POINT('',(12.920731707317,-4.2,10.78));
#170 = CIRCLE('',#171,2.829268292683);
#171 = AXIS2_PLACEMENT_3D('',#172,#173,#174);
#172 = CARTESIAN_POINT('',(12.920731707317,-1.370731707317,10.78));
#173 = DIRECTION('',(8.982954040189E-034,3.413135338977E-033,-1.));
#174 = DIRECTION('',(1.,1.137711779659E-033,8.982954040189E-034));
#175 = ORIENTED_EDGE('',*,*,#176,.F.);
#176 = EDGE_CURVE('',#168,#168,#177,.T.);
#177 = CIRCLE('',#178,7.920731707317);
#178 = AXIS2_PLACEMENT_3D('',#179,#180,#181);
#179 = CARTESIAN_POINT('',(5.,-4.2,10.78));
#180 = DIRECTION('',(1.137711779659E-033,-1.,-3.413135338977E-033));
#181 = DIRECTION('',(1.,1.137711779659E-033,8.982954040189E-034));
#182 = ORIENTED_EDGE('',*,*,#167,.F.);
#183 = FACE_BOUND('',#184,.T.);
#184 = EDGE_LOOP('',(#185,#208));
#185 = ORIENTED_EDGE('',*,*,#186,.T.);
#186 = EDGE_CURVE('',#187,#189,#191,.T.);
#187 = VERTEX_POINT('',#188);
#188 = CARTESIAN_POINT('',(10.45,-2.6,1.841464963472));
#189 = VERTEX_POINT('',#190);
#190 = CARTESIAN_POINT('',(9.782259104747,-2.206186716153,1.293383434559
));
#191 = B_SPLINE_CURVE_WITH_KNOTS('',8,(#192,#193,#194,#195,#196,#197,
#198,#199,#200,#201,#202,#203,#204,#205,#206,#207),.UNSPECIFIED.,.F.
,.F.,(9,7,9),(0.E+000,0.301625571019,1.),.UNSPECIFIED.);
#192 = CARTESIAN_POINT('',(10.45,-2.6,1.841464963472));
#193 = CARTESIAN_POINT('',(10.45,-2.56604447269,1.822280432577));
#194 = CARTESIAN_POINT('',(10.447071805425,-2.532268835655,
1.802171506762));
#195 = CARTESIAN_POINT('',(10.441269671056,-2.498912573709,1.78128668231
));
#196 = CARTESIAN_POINT('',(10.43265658757,-2.466207404712,1.759753409699
));
#197 = CARTESIAN_POINT('',(10.421305066662,-2.434378968433,
1.737682857844));
#198 = CARTESIAN_POINT('',(10.407297926179,-2.403648515398,
1.715174678349));
#199 = CARTESIAN_POINT('',(10.390729075249,-2.374234595752,
1.692321769747));
#200 = CARTESIAN_POINT('',(10.327654927461,-2.281802619439,
1.615714445256));
#201 = CARTESIAN_POINT('',(10.270509992115,-2.225578873188,1.56093919313
));
#202 = CARTESIAN_POINT('',(10.201370665918,-2.179905780318,
1.505669769601));
#203 = CARTESIAN_POINT('',(10.121618307348,-2.147937087775,
1.451123276322));
#204 = CARTESIAN_POINT('',(10.034295971321,-2.133221927409,
1.399372635115));
#205 = CARTESIAN_POINT('',(9.944248178344,-2.138510949563,1.353278230417
));
#206 = CARTESIAN_POINT('',(9.858264339905,-2.164163126228,1.317152795836
));
#207 = CARTESIAN_POINT('',(9.782259104747,-2.206186716153,1.293383434559
));
#208 = ORIENTED_EDGE('',*,*,#209,.T.);
#209 = EDGE_CURVE('',#189,#187,#210,.T.);
#210 = B_SPLINE_CURVE_WITH_KNOTS('',8,(#211,#212,#213,#214,#215,#216,
#217,#218,#219,#220,#221,#222,#223,#224,#225,#226,#227,#228,#229,
#230,#231,#232,#233,#234,#235,#236,#237,#238,#239,#240,#241,#242,
#243,#244,#245,#246,#247,#248,#249,#250,#251,#252,#253,#254,#255,
#256,#257,#258,#259,#260,#261,#262,#263,#264,#265,#266,#267,#268),
.UNSPECIFIED.,.F.,.F.,(9,7,7,7,7,7,7,7,9),(0.E+000,0.111687294727,
0.220815843686,0.277570068527,0.446884228459,0.608145829786,
0.822700474277,0.871017685606,1.),.UNSPECIFIED.);
#211 = CARTESIAN_POINT('',(9.782259104747,-2.206186716153,1.293383434559
));
#212 = CARTESIAN_POINT('',(9.757593347794,-2.219824509039,1.285669633174
));
#213 = CARTESIAN_POINT('',(9.733912434843,-2.235222983901,1.279236579645
));
#214 = CARTESIAN_POINT('',(9.711382744859,-2.252287723289,1.274163884635
));
#215 = CARTESIAN_POINT('',(9.690157571788,-2.270901065313,1.270519905404
));
#216 = CARTESIAN_POINT('',(9.670373842066,-2.290924710064,1.268358330353
));
#217 = CARTESIAN_POINT('',(9.652148832133,-2.312202326043,1.267714763559
));
#218 = CARTESIAN_POINT('',(9.63557688594,-2.334562156588,1.268603309327)
);
#219 = CARTESIAN_POINT('',(9.606215608401,-2.380544269499,1.273367794729
));
#220 = CARTESIAN_POINT('',(9.59334514142,-2.404131003259,1.277175344648)
);
#221 = CARTESIAN_POINT('',(9.582179188946,-2.428409471844,1.282427040929
));
#222 = CARTESIAN_POINT('',(9.572752202078,-2.45320848158,1.289092786861)
);
#223 = CARTESIAN_POINT('',(9.565072784333,-2.478362188912,1.297124379682
));
#224 = CARTESIAN_POINT('',(9.559128041799,-2.503714495467,1.306458882429
));
#225 = CARTESIAN_POINT('',(9.554888124721,-2.529121650101,1.317022142534
));
#226 = CARTESIAN_POINT('',(9.550970660867,-2.567627102956,1.334822612648
));
#227 = CARTESIAN_POINT('',(9.550079995575,-2.580781561823,1.341223425962
));
#228 = CARTESIAN_POINT('',(9.549633069473,-2.593898635787,1.347923729406
));
#229 = CARTESIAN_POINT('',(9.549623196538,-2.606961667104,1.354911955703
));
#230 = CARTESIAN_POINT('',(9.55004307756,-2.619955109097,1.362176254902)
);
#231 = CARTESIAN_POINT('',(9.550884977805,-2.632864496199,1.36970461127)
);
#232 = CARTESIAN_POINT('',(9.552140904681,-2.645676414006,1.37748496018)
);
#233 = CARTESIAN_POINT('',(9.558760653082,-2.696272350018,1.40943229813)
);
#234 = CARTESIAN_POINT('',(9.567329875433,-2.733175455469,1.435487062687
));
#235 = CARTESIAN_POINT('',(9.579293167057,-2.768776111395,1.463358597219
));
#236 = CARTESIAN_POINT('',(9.594433196207,-2.80282087769,1.49273381904)
);
#237 = CARTESIAN_POINT('',(9.612547997141,-2.835100135138,1.523305823757
));
#238 = CARTESIAN_POINT('',(9.63346151522,-2.865431045319,1.55477561579)
);
#239 = CARTESIAN_POINT('',(9.657029284736,-2.893637883679,1.586847309897
));
#240 = CARTESIAN_POINT('',(9.7080074083,-2.944190194427,1.650046808751)
);
#241 = CARTESIAN_POINT('',(9.735155115153,-2.966724462654,1.681114269087
));
#242 = CARTESIAN_POINT('',(9.764498016215,-2.986993983955,1.712179209844
));
#243 = CARTESIAN_POINT('',(9.795955717046,-3.004808771457,1.742960098902
));
#244 = CARTESIAN_POINT('',(9.829431989217,-3.019926630502,1.773114885164
));
#245 = CARTESIAN_POINT('',(9.864792322656,-3.032057475683,1.802234858739
));
#246 = CARTESIAN_POINT('',(9.901838813704,-3.040872752334,1.829851333058
));
#247 = CARTESIAN_POINT('',(9.991430632112,-3.052868200566,1.889520404103
));
#248 = CARTESIAN_POINT('',(10.04526496382,-3.053252569903,1.920165153306
));
#249 = CARTESIAN_POINT('',(10.100101919804,-3.04611159407,1.945452774768
));
#250 = CARTESIAN_POINT('',(10.154081333997,-3.031089304718,1.96396124485
));
#251 = CARTESIAN_POINT('',(10.205407046319,-3.008497399557,
1.975130058142));
#252 = CARTESIAN_POINT('',(10.252556402413,-2.979196520648,
1.979244680143));
#253 = CARTESIAN_POINT('',(10.294439440544,-2.944404877445,
1.977027053815));
#254 = CARTESIAN_POINT('',(10.338523854968,-2.896722211257,
1.967712323037));
#255 = CARTESIAN_POINT('',(10.346333507977,-2.88774211786,1.965725849));
#256 = CARTESIAN_POINT('',(10.353843640607,-2.878559356248,
1.963474727534));
#257 = CARTESIAN_POINT('',(10.361049042651,-2.869186941764,
1.960968884925));
#258 = CARTESIAN_POINT('',(10.367945433219,-2.859637721295,
1.958218320308));
#259 = CARTESIAN_POINT('',(10.374529371038,-2.849924293144,1.95523298298
));
#260 = CARTESIAN_POINT('',(10.380798164741,-2.840058926915,
1.952022649712));
#261 = CARTESIAN_POINT('',(10.402637569284,-2.803344051544,
1.939451535899));
#262 = CARTESIAN_POINT('',(10.416261788834,-2.775641968659,
1.928772352649));
#263 = CARTESIAN_POINT('',(10.427589430225,-2.747167199041,
1.916739095194));
#264 = CARTESIAN_POINT('',(10.436611715025,-2.718127829692,
1.903518254576));
#265 = CARTESIAN_POINT('',(10.443338073264,-2.688718187008,
1.889259125819));
#266 = CARTESIAN_POINT('',(10.447790743834,-2.659118206175,
1.874092059132));
#267 = CARTESIAN_POINT('',(10.45,-2.629494053262,1.85812880647));
#268 = CARTESIAN_POINT('',(10.45,-2.6,1.841464963472));
#269 = TOROIDAL_SURFACE('',#270,7.920731707317,2.829268292683);
#270 = AXIS2_PLACEMENT_3D('',#271,#272,#273);
#271 = CARTESIAN_POINT('',(5.,-1.370731707317,10.78));
#272 = DIRECTION('',(1.137711779659E-033,-1.,-3.413135338977E-033));
#273 = DIRECTION('',(1.,1.137711779659E-033,8.982954040189E-034));
#274 = ADVANCED_FACE('',(#275),#278,.F.);
#275 = FACE_BOUND('',#276,.F.);
#276 = EDGE_LOOP('',(#277));
#277 = ORIENTED_EDGE('',*,*,#64,.T.);
#278 = PLANE('',#279);
#279 = AXIS2_PLACEMENT_3D('',#280,#281,#282);
#280 = CARTESIAN_POINT('',(5.,1.6,10.78));
#281 = DIRECTION('',(1.137711779659E-033,-1.,-3.413135338977E-033));
#282 = DIRECTION('',(0.E+000,3.413135338977E-033,-1.));
#283 = ADVANCED_FACE('',(#284),#304,.T.);
#284 = FACE_BOUND('',#285,.T.);
#285 = EDGE_LOOP('',(#286,#287,#295,#302,#303));
#286 = ORIENTED_EDGE('',*,*,#111,.T.);
#287 = ORIENTED_EDGE('',*,*,#288,.T.);
#288 = EDGE_CURVE('',#75,#289,#291,.T.);
#289 = VERTEX_POINT('',#290);
#290 = CARTESIAN_POINT('',(0.45,0.E+000,-2.82));
#291 = LINE('',#292,#293);
#292 = CARTESIAN_POINT('',(0.45,0.E+000,10.78));
#293 = VECTOR('',#294,1.);
#294 = DIRECTION('',(-0.E+000,-0.E+000,-1.));
#295 = ORIENTED_EDGE('',*,*,#296,.T.);
#296 = EDGE_CURVE('',#289,#289,#297,.T.);
#297 = CIRCLE('',#298,0.45);
#298 = AXIS2_PLACEMENT_3D('',#299,#300,#301);
#299 = CARTESIAN_POINT('',(0.E+000,0.E+000,-2.82));
#300 = DIRECTION('',(0.E+000,0.E+000,1.));
#301 = DIRECTION('',(1.,0.E+000,0.E+000));
#302 = ORIENTED_EDGE('',*,*,#288,.F.);
#303 = ORIENTED_EDGE('',*,*,#74,.T.);
#304 = CYLINDRICAL_SURFACE('',#305,0.45);
#305 = AXIS2_PLACEMENT_3D('',#306,#307,#308);
#306 = CARTESIAN_POINT('',(0.E+000,0.E+000,10.78));
#307 = DIRECTION('',(0.E+000,0.E+000,1.));
#308 = DIRECTION('',(1.,0.E+000,0.E+000));
#309 = ADVANCED_FACE('',(#310),#313,.T.);
#310 = FACE_BOUND('',#311,.T.);
#311 = EDGE_LOOP('',(#312));
#312 = ORIENTED_EDGE('',*,*,#176,.T.);
#313 = PLANE('',#314);
#314 = AXIS2_PLACEMENT_3D('',#315,#316,#317);
#315 = CARTESIAN_POINT('',(5.,-4.2,10.78));
#316 = DIRECTION('',(1.137711779659E-033,-1.,-3.413135338977E-033));
#317 = DIRECTION('',(0.E+000,3.413135338977E-033,-1.));
#318 = ADVANCED_FACE('',(#319),#339,.T.);
#319 = FACE_BOUND('',#320,.T.);
#320 = EDGE_LOOP('',(#321,#322,#330,#337,#338));
#321 = ORIENTED_EDGE('',*,*,#186,.F.);
#322 = ORIENTED_EDGE('',*,*,#323,.T.);
#323 = EDGE_CURVE('',#187,#324,#326,.T.);
#324 = VERTEX_POINT('',#325);
#325 = CARTESIAN_POINT('',(10.45,-2.6,-2.82));
#326 = LINE('',#327,#328);
#327 = CARTESIAN_POINT('',(10.45,-2.6,10.78));
#328 = VECTOR('',#329,1.);
#329 = DIRECTION('',(-0.E+000,-0.E+000,-1.));
#330 = ORIENTED_EDGE('',*,*,#331,.T.);
#331 = EDGE_CURVE('',#324,#324,#332,.T.);
#332 = CIRCLE('',#333,0.45);
#333 = AXIS2_PLACEMENT_3D('',#334,#335,#336);
#334 = CARTESIAN_POINT('',(10.,-2.6,-2.82));
#335 = DIRECTION('',(0.E+000,0.E+000,1.));
#336 = DIRECTION('',(1.,0.E+000,0.E+000));
#337 = ORIENTED_EDGE('',*,*,#323,.F.);
#338 = ORIENTED_EDGE('',*,*,#209,.F.);
#339 = CYLINDRICAL_SURFACE('',#340,0.45);
#340 = AXIS2_PLACEMENT_3D('',#341,#342,#343);
#341 = CARTESIAN_POINT('',(10.,-2.6,10.78));
#342 = DIRECTION('',(0.E+000,0.E+000,1.));
#343 = DIRECTION('',(1.,0.E+000,0.E+000));
#344 = ADVANCED_FACE('',(#345),#365,.T.);
#345 = FACE_BOUND('',#346,.F.);
#346 = EDGE_LOOP('',(#347,#356,#357,#358));
#347 = ORIENTED_EDGE('',*,*,#348,.F.);
#348 = EDGE_CURVE('',#289,#349,#351,.T.);
#349 = VERTEX_POINT('',#350);
#350 = CARTESIAN_POINT('',(0.27,0.E+000,-3.));
#351 = CIRCLE('',#352,0.18);
#352 = AXIS2_PLACEMENT_3D('',#353,#354,#355);
#353 = CARTESIAN_POINT('',(0.27,0.E+000,-2.82));
#354 = DIRECTION('',(-0.E+000,1.,0.E+000));
#355 = DIRECTION('',(1.,0.E+000,0.E+000));
#356 = ORIENTED_EDGE('',*,*,#296,.T.);
#357 = ORIENTED_EDGE('',*,*,#348,.T.);
#358 = ORIENTED_EDGE('',*,*,#359,.F.);
#359 = EDGE_CURVE('',#349,#349,#360,.T.);
#360 = CIRCLE('',#361,0.27);
#361 = AXIS2_PLACEMENT_3D('',#362,#363,#364);
#362 = CARTESIAN_POINT('',(0.E+000,0.E+000,-3.));
#363 = DIRECTION('',(0.E+000,0.E+000,1.));
#364 = DIRECTION('',(1.,0.E+000,0.E+000));
#365 = TOROIDAL_SURFACE('',#366,0.27,0.18);
#366 = AXIS2_PLACEMENT_3D('',#367,#368,#369);
#367 = CARTESIAN_POINT('',(0.E+000,0.E+000,-2.82));
#368 = DIRECTION('',(-0.E+000,-0.E+000,-1.));
#369 = DIRECTION('',(1.,0.E+000,0.E+000));
#370 = ADVANCED_FACE('',(#371),#391,.T.);
#371 = FACE_BOUND('',#372,.F.);
#372 = EDGE_LOOP('',(#373,#382,#383,#384));
#373 = ORIENTED_EDGE('',*,*,#374,.F.);
#374 = EDGE_CURVE('',#324,#375,#377,.T.);
#375 = VERTEX_POINT('',#376);
#376 = CARTESIAN_POINT('',(10.27,-2.6,-3.));
#377 = CIRCLE('',#378,0.18);
#378 = AXIS2_PLACEMENT_3D('',#379,#380,#381);
#379 = CARTESIAN_POINT('',(10.27,-2.6,-2.82));
#380 = DIRECTION('',(-0.E+000,1.,0.E+000));
#381 = DIRECTION('',(1.,0.E+000,0.E+000));
#382 = ORIENTED_EDGE('',*,*,#331,.T.);
#383 = ORIENTED_EDGE('',*,*,#374,.T.);
#384 = ORIENTED_EDGE('',*,*,#385,.F.);
#385 = EDGE_CURVE('',#375,#375,#386,.T.);
#386 = CIRCLE('',#387,0.27);
#387 = AXIS2_PLACEMENT_3D('',#388,#389,#390);
#388 = CARTESIAN_POINT('',(10.,-2.6,-3.));
#389 = DIRECTION('',(0.E+000,0.E+000,1.));
#390 = DIRECTION('',(1.,0.E+000,0.E+000));
#391 = TOROIDAL_SURFACE('',#392,0.27,0.18);
#392 = AXIS2_PLACEMENT_3D('',#393,#394,#395);
#393 = CARTESIAN_POINT('',(10.,-2.6,-2.82));
#394 = DIRECTION('',(-0.E+000,-0.E+000,-1.));
#395 = DIRECTION('',(1.,0.E+000,0.E+000));
#396 = ADVANCED_FACE('',(#397),#400,.F.);
#397 = FACE_BOUND('',#398,.F.);
#398 = EDGE_LOOP('',(#399));
#399 = ORIENTED_EDGE('',*,*,#359,.T.);
#400 = PLANE('',#401);
#401 = AXIS2_PLACEMENT_3D('',#402,#403,#404);
#402 = CARTESIAN_POINT('',(-1.18701400394E-017,2.911085817041E-017,-3.)
);
#403 = DIRECTION('',(0.E+000,0.E+000,1.));
#404 = DIRECTION('',(1.,0.E+000,0.E+000));
#405 = ADVANCED_FACE('',(#406),#409,.F.);
#406 = FACE_BOUND('',#407,.F.);
#407 = EDGE_LOOP('',(#408));
#408 = ORIENTED_EDGE('',*,*,#385,.T.);
#409 = PLANE('',#410);
#410 = AXIS2_PLACEMENT_3D('',#411,#412,#413);
#411 = CARTESIAN_POINT('',(10.,-2.6,-3.));
#412 = DIRECTION('',(0.E+000,0.E+000,1.));
#413 = DIRECTION('',(1.,0.E+000,0.E+000));
#414 = ( GEOMETRIC_REPRESENTATION_CONTEXT(3)
GLOBAL_UNCERTAINTY_ASSIGNED_CONTEXT((#418)) GLOBAL_UNIT_ASSIGNED_CONTEXT
((#415,#416,#417)) REPRESENTATION_CONTEXT('Context #1',
'3D Context with UNIT and UNCERTAINTY') );
#415 = ( LENGTH_UNIT() NAMED_UNIT(*) SI_UNIT(.MILLI.,.METRE.) );
#416 = ( NAMED_UNIT(*) PLANE_ANGLE_UNIT() SI_UNIT($,.RADIAN.) );
#417 = ( NAMED_UNIT(*) SI_UNIT($,.STERADIAN.) SOLID_ANGLE_UNIT() );
#418 = UNCERTAINTY_MEASURE_WITH_UNIT(LENGTH_MEASURE(1.E-007),#415,
'distance_accuracy_value','confusion accuracy');
#419 = PRODUCT_RELATED_PRODUCT_CATEGORY('part',$,(#7));
#420 = MECHANICAL_DESIGN_GEOMETRIC_PRESENTATION_REPRESENTATION('',(#421,
#429,#436,#443,#450,#458,#465,#472,#479,#486,#493),#414);
#421 = STYLED_ITEM('color',(#422),#17);
#422 = PRESENTATION_STYLE_ASSIGNMENT((#423));
#423 = SURFACE_STYLE_USAGE(.BOTH.,#424);
#424 = SURFACE_SIDE_STYLE('',(#425));
#425 = SURFACE_STYLE_FILL_AREA(#426);
#426 = FILL_AREA_STYLE('',(#427));
#427 = FILL_AREA_STYLE_COLOUR('',#428);
#428 = COLOUR_RGB('',0.136999994516,0.402000010014,0.726999998093);
#429 = STYLED_ITEM('color',(#430),#50);
#430 = PRESENTATION_STYLE_ASSIGNMENT((#431));
#431 = SURFACE_STYLE_USAGE(.BOTH.,#432);
#432 = SURFACE_SIDE_STYLE('',(#433));
#433 = SURFACE_STYLE_FILL_AREA(#434);
#434 = FILL_AREA_STYLE('',(#435));
#435 = FILL_AREA_STYLE_COLOUR('',#428);
#436 = STYLED_ITEM('color',(#437),#162);
#437 = PRESENTATION_STYLE_ASSIGNMENT((#438));
#438 = SURFACE_STYLE_USAGE(.BOTH.,#439);
#439 = SURFACE_SIDE_STYLE('',(#440));
#440 = SURFACE_STYLE_FILL_AREA(#441);
#441 = FILL_AREA_STYLE('',(#442));
#442 = FILL_AREA_STYLE_COLOUR('',#428);
#443 = STYLED_ITEM('color',(#444),#274);
#444 = PRESENTATION_STYLE_ASSIGNMENT((#445));
#445 = SURFACE_STYLE_USAGE(.BOTH.,#446);
#446 = SURFACE_SIDE_STYLE('',(#447));
#447 = SURFACE_STYLE_FILL_AREA(#448);
#448 = FILL_AREA_STYLE('',(#449));
#449 = FILL_AREA_STYLE_COLOUR('',#428);
#450 = STYLED_ITEM('color',(#451),#283);
#451 = PRESENTATION_STYLE_ASSIGNMENT((#452));
#452 = SURFACE_STYLE_USAGE(.BOTH.,#453);
#453 = SURFACE_SIDE_STYLE('',(#454));
#454 = SURFACE_STYLE_FILL_AREA(#455);
#455 = FILL_AREA_STYLE('',(#456));
#456 = FILL_AREA_STYLE_COLOUR('',#457);
#457 = COLOUR_RGB('',0.824000000954,0.819999992847,0.78100001812);
#458 = STYLED_ITEM('color',(#459),#309);
#459 = PRESENTATION_STYLE_ASSIGNMENT((#460));
#460 = SURFACE_STYLE_USAGE(.BOTH.,#461);
#461 = SURFACE_SIDE_STYLE('',(#462));
#462 = SURFACE_STYLE_FILL_AREA(#463);
#463 = FILL_AREA_STYLE('',(#464));
#464 = FILL_AREA_STYLE_COLOUR('',#428);
#465 = STYLED_ITEM('color',(#466),#318);
#466 = PRESENTATION_STYLE_ASSIGNMENT((#467));
#467 = SURFACE_STYLE_USAGE(.BOTH.,#468);
#468 = SURFACE_SIDE_STYLE('',(#469));
#469 = SURFACE_STYLE_FILL_AREA(#470);
#470 = FILL_AREA_STYLE('',(#471));
#471 = FILL_AREA_STYLE_COLOUR('',#457);
#472 = STYLED_ITEM('color',(#473),#344);
#473 = PRESENTATION_STYLE_ASSIGNMENT((#474));
#474 = SURFACE_STYLE_USAGE(.BOTH.,#475);
#475 = SURFACE_SIDE_STYLE('',(#476));
#476 = SURFACE_STYLE_FILL_AREA(#477);
#477 = FILL_AREA_STYLE('',(#478));
#478 = FILL_AREA_STYLE_COLOUR('',#457);
#479 = STYLED_ITEM('color',(#480),#370);
#480 = PRESENTATION_STYLE_ASSIGNMENT((#481));
#481 = SURFACE_STYLE_USAGE(.BOTH.,#482);
#482 = SURFACE_SIDE_STYLE('',(#483));
#483 = SURFACE_STYLE_FILL_AREA(#484);
#484 = FILL_AREA_STYLE('',(#485));
#485 = FILL_AREA_STYLE_COLOUR('',#457);
#486 = STYLED_ITEM('color',(#487),#396);
#487 = PRESENTATION_STYLE_ASSIGNMENT((#488));
#488 = SURFACE_STYLE_USAGE(.BOTH.,#489);
#489 = SURFACE_SIDE_STYLE('',(#490));
#490 = SURFACE_STYLE_FILL_AREA(#491);
#491 = FILL_AREA_STYLE('',(#492));
#492 = FILL_AREA_STYLE_COLOUR('',#457);
#493 = STYLED_ITEM('color',(#494),#405);
#494 = PRESENTATION_STYLE_ASSIGNMENT((#495));
#495 = SURFACE_STYLE_USAGE(.BOTH.,#496);
#496 = SURFACE_SIDE_STYLE('',(#497));
#497 = SURFACE_STYLE_FILL_AREA(#498);
#498 = FILL_AREA_STYLE('',(#499));
#499 = FILL_AREA_STYLE_COLOUR('',#457);
ENDSEC;
END-ISO-10303-21;
