ISO-10303-21;
HEADER;
/* RV_Disc_D21.5mm_W4.5mm_P10mm.step 3D STEP model for use in ECAD systems
 * Copyright (C) 2018, kicad StepUp
 * 
 * This work is licensed under the [Creative Commons CC-BY-SA 4.0 License](https://creativecommons.org/licenses/by-sa/4.0/legalcode), 
 * with the following exception:
 * To the extent that the creation of electronic designs that use 'Licensed Material' can be considered to be 'Adapted Material', 
 * then the copyright holder waives article 3 of the license with respect to these designs and any generated files which use data provided 
 * as part of the 'Licensed Material'.
 * You are free to use the library data in your own projects without the obligation to share your project files under this or any other license agreement.
 * However, if you wish to redistribute these libraries, or parts thereof (including in modified form) as a collection then the exception above does not apply. 
 * Please refer to https://github.com/KiCad/kicad-packages3D/blob/master/LICENSE.md for further clarification of the exception.
 * Disclaimer of Warranties and Limitation of Liability.
 * These libraries are provided in the hope that they will be useful, but are provided without warranty of any kind, express or implied.
 * *USE 3D CAD DATA AT YOUR OWN RISK*
 * *DO NOT RELY UPON ANY INFORMATION FOUND HERE WITHOUT INDEPENDENT VERIFICATION.*
 * 
 */

FILE_DESCRIPTION(
/* description */ ('model of RV_Disc_D21.5mm_W4.5mm_P10mm'),
/* implementation_level */ '2;1');

FILE_NAME(
/* name */ 'RV_Disc_D21.5mm_W4.5mm_P10mm.step',
/* time_stamp */ '2018-11-11T21:02:38',
/* author */ ('kicad StepUp','ksu'),
/* organization */ ('FreeCAD'),
/* preprocessor_version */ 'OCC',
/* originating_system */ 'kicad StepUp',
/* authorisation */ '');

FILE_SCHEMA(('AUTOMOTIVE_DESIGN { 1 0 10303 214 1 1 1 1 }'));
ENDSEC;

DATA;
#1 = APPLICATION_PROTOCOL_DEFINITION('international standard',
'automotive_design',2000,#2);
#2 = APPLICATION_CONTEXT(
'core data for automotive mechanical design processes');
#3 = SHAPE_DEFINITION_REPRESENTATION(#4,#10);
#4 = PRODUCT_DEFINITION_SHAPE('','',#5);
#5 = PRODUCT_DEFINITION('design','',#6,#9);
#6 = PRODUCT_DEFINITION_FORMATION('','',#7);
#7 = PRODUCT('RV_Disc_D215mm_W45mm_P10mm','RV_Disc_D215mm_W45mm_P10mm',
'',(#8));
#8 = PRODUCT_CONTEXT('',#2,'mechanical');
#9 = PRODUCT_DEFINITION_CONTEXT('part definition',#2,'design');
#10 = ADVANCED_BREP_SHAPE_REPRESENTATION('',(#11,#15),#398);
#11 = AXIS2_PLACEMENT_3D('',#12,#13,#14);
#12 = CARTESIAN_POINT('',(0.E+000,0.E+000,0.E+000));
#13 = DIRECTION('',(0.E+000,0.E+000,1.));
#14 = DIRECTION('',(1.,0.E+000,-0.E+000));
#15 = MANIFOLD_SOLID_BREP('',#16);
#16 = CLOSED_SHELL('',(#17,#50,#156,#258,#267,#293,#302,#328,#354,#380,
#389));
#17 = ADVANCED_FACE('',(#18),#45,.T.);
#18 = FACE_BOUND('',#19,.F.);
#19 = EDGE_LOOP('',(#20,#30,#37,#38));
#20 = ORIENTED_EDGE('',*,*,#21,.T.);
#21 = EDGE_CURVE('',#22,#24,#26,.T.);
#22 = VERTEX_POINT('',#23);
#23 = CARTESIAN_POINT('',(15.75,-0.72012195122,10.78));
#24 = VERTEX_POINT('',#25);
#25 = CARTESIAN_POINT('',(15.75,-0.82987804878,10.78));
#26 = LINE('',#27,#28);
#27 = CARTESIAN_POINT('',(15.75,1.475,10.78));
#28 = VECTOR('',#29,1.);
#29 = DIRECTION('',(0.E+000,-1.,0.E+000));
#30 = ORIENTED_EDGE('',*,*,#31,.T.);
#31 = EDGE_CURVE('',#24,#24,#32,.T.);
#32 = CIRCLE('',#33,10.75);
#33 = AXIS2_PLACEMENT_3D('',#34,#35,#36);
#34 = CARTESIAN_POINT('',(5.,-0.82987804878,10.78));
#35 = DIRECTION('',(0.E+000,-1.,0.E+000));
#36 = DIRECTION('',(1.,0.E+000,0.E+000));
#37 = ORIENTED_EDGE('',*,*,#21,.F.);
#38 = ORIENTED_EDGE('',*,*,#39,.F.);
#39 = EDGE_CURVE('',#22,#22,#40,.T.);
#40 = CIRCLE('',#41,10.75);
#41 = AXIS2_PLACEMENT_3D('',#42,#43,#44);
#42 = CARTESIAN_POINT('',(5.,-0.72012195122,10.78));
#43 = DIRECTION('',(0.E+000,-1.,0.E+000));
#44 = DIRECTION('',(1.,0.E+000,0.E+000));
#45 = CYLINDRICAL_SURFACE('',#46,10.75);
#46 = AXIS2_PLACEMENT_3D('',#47,#48,#49);
#47 = CARTESIAN_POINT('',(5.,1.475,10.78));
#48 = DIRECTION('',(0.E+000,1.,0.E+000));
#49 = DIRECTION('',(1.,0.E+000,0.E+000));
#50 = ADVANCED_FACE('',(#51,#71),#151,.T.);
#51 = FACE_BOUND('',#52,.F.);
#52 = EDGE_LOOP('',(#53,#54,#63,#70));
#53 = ORIENTED_EDGE('',*,*,#39,.T.);
#54 = ORIENTED_EDGE('',*,*,#55,.T.);
#55 = EDGE_CURVE('',#22,#56,#58,.T.);
#56 = VERTEX_POINT('',#57);
#57 = CARTESIAN_POINT('',(13.55487804878,1.475,10.78));
#58 = CIRCLE('',#59,2.19512195122);
#59 = AXIS2_PLACEMENT_3D('',#60,#61,#62);
#60 = CARTESIAN_POINT('',(13.55487804878,-0.72012195122,10.78));
#61 = DIRECTION('',(0.E+000,0.E+000,1.));
#62 = DIRECTION('',(1.,0.E+000,0.E+000));
#63 = ORIENTED_EDGE('',*,*,#64,.F.);
#64 = EDGE_CURVE('',#56,#56,#65,.T.);
#65 = CIRCLE('',#66,8.55487804878);
#66 = AXIS2_PLACEMENT_3D('',#67,#68,#69);
#67 = CARTESIAN_POINT('',(5.,1.475,10.78));
#68 = DIRECTION('',(0.E+000,-1.,0.E+000));
#69 = DIRECTION('',(1.,0.E+000,0.E+000));
#70 = ORIENTED_EDGE('',*,*,#55,.F.);
#71 = FACE_BOUND('',#72,.F.);
#72 = EDGE_LOOP('',(#73,#110));
#73 = ORIENTED_EDGE('',*,*,#74,.T.);
#74 = EDGE_CURVE('',#75,#77,#79,.T.);
#75 = VERTEX_POINT('',#76);
#76 = CARTESIAN_POINT('',(0.45,0.E+000,1.174641824217));
#77 = VERTEX_POINT('',#78);
#78 = CARTESIAN_POINT('',(-0.311279983234,-0.324968878568,1.474995321171
));
#79 = B_SPLINE_CURVE_WITH_KNOTS('',8,(#80,#81,#82,#83,#84,#85,#86,#87,
#88,#89,#90,#91,#92,#93,#94,#95,#96,#97,#98,#99,#100,#101,#102,#103,
#104,#105,#106,#107,#108,#109),.UNSPECIFIED.,.F.,.F.,(9,7,7,7,9),(
0.E+000,0.175089414824,0.365657340365,0.479716645585,1.),
.UNSPECIFIED.);
#80 = CARTESIAN_POINT('',(0.45,-1.665334536938E-016,1.174641824217));
#81 = CARTESIAN_POINT('',(0.45,-2.178193678414E-002,1.16627177033));
#82 = CARTESIAN_POINT('',(0.44879503667,-4.370261602525E-002,
1.158744877102));
#83 = CARTESIAN_POINT('',(0.446358242349,-6.568344378668E-002,
1.152104635349));
#84 = CARTESIAN_POINT('',(0.442668855331,-8.763919743197E-002,
1.146388532947));
#85 = CARTESIAN_POINT('',(0.437713874555,-0.109479117001,1.141626863983)
);
#86 = CARTESIAN_POINT('',(0.431489714296,-0.131107996588,1.137841537905)
);
#87 = CARTESIAN_POINT('',(0.424003858858,-0.152427275716,1.13504488867)
);
#88 = CARTESIAN_POINT('',(0.405777648441,-0.196093400914,1.131272386687)
);
#89 = CARTESIAN_POINT('',(0.394806613864,-0.218368172988,1.130479062264)
);
#90 = CARTESIAN_POINT('',(0.3823889198,-0.240029936552,1.130861481838));
#91 = CARTESIAN_POINT('',(0.36856516712,-0.260953159159,1.132406841806)
);
#92 = CARTESIAN_POINT('',(0.353389647387,-0.281018426586,1.135088656963)
);
#93 = CARTESIAN_POINT('',(0.336928938927,-0.300113583107,1.138868853718)
);
#94 = CARTESIAN_POINT('',(0.319260502918,-0.318134871783,1.14369986331)
);
#95 = CARTESIAN_POINT('',(0.289225495234,-0.345075105983,1.153014220351)
);
#96 = CARTESIAN_POINT('',(0.277577664892,-0.354744164858,1.156858647512)
);
#97 = CARTESIAN_POINT('',(0.265545848395,-0.36397541723,1.16104843721));
#98 = CARTESIAN_POINT('',(0.253149091451,-0.372750206084,1.165571239747)
);
#99 = CARTESIAN_POINT('',(0.240407342234,-0.381051042308,1.17041407156)
);
#100 = CARTESIAN_POINT('',(0.227341368104,-0.388861595472,1.175563471752
));
#101 = CARTESIAN_POINT('',(0.213972672318,-0.396166684614,1.181005658629
));
#102 = CARTESIAN_POINT('',(0.138062084665,-0.433904821361,1.212823245619
));
#103 = CARTESIAN_POINT('',(6.885742758748E-002,-0.454597920021,
1.245184436666));
#104 = CARTESIAN_POINT('',(-3.969932859046E-003,-0.462237371318,
1.282189352552));
#105 = CARTESIAN_POINT('',(-7.646943721032E-002,-0.456264010178,
1.321427851886));
#106 = CARTESIAN_POINT('',(-0.145323513394,-0.437743470907,
1.361143455404));
#107 = CARTESIAN_POINT('',(-0.208219304216,-0.40850245812,1.400301354144
));
#108 = CARTESIAN_POINT('',(-0.263826345602,-0.370423592853,
1.438330764758));
#109 = CARTESIAN_POINT('',(-0.311279983234,-0.324968878568,
1.474995321171));
#110 = ORIENTED_EDGE('',*,*,#111,.T.);
#111 = EDGE_CURVE('',#77,#75,#112,.T.);
#112 = B_SPLINE_CURVE_WITH_KNOTS('',7,(#113,#114,#115,#116,#117,#118,
#119,#120,#121,#122,#123,#124,#125,#126,#127,#128,#129,#130,#131,
#132,#133,#134,#135,#136,#137,#138,#139,#140,#141,#142,#143,#144,
#145,#146,#147,#148,#149,#150),.UNSPECIFIED.,.F.,.F.,(8,6,6,6,6,6,8)
,(0.E+000,6.20964905177E-002,0.339531809028,0.489102422118,
0.630036224989,0.772860502094,1.),.UNSPECIFIED.);
#113 = CARTESIAN_POINT('',(-0.311279983234,-0.324968878568,
1.474995321171));
#114 = CARTESIAN_POINT('',(-0.322647639291,-0.314080070377,
1.483778421637));
#115 = CARTESIAN_POINT('',(-0.333539488262,-0.302757395168,
1.492482899699));
#116 = CARTESIAN_POINT('',(-0.343940141563,-0.291024545113,
1.501103486495));
#117 = CARTESIAN_POINT('',(-0.35383528933,-0.27890533977,1.509635047119)
);
#118 = CARTESIAN_POINT('',(-0.363211700418,-0.266423726085,
1.518072580625));
#119 = CARTESIAN_POINT('',(-0.372057222399,-0.253603778389,
1.526411220023));
#120 = CARTESIAN_POINT('',(-0.417459505862,-0.181789125076,
1.571438702032));
#121 = CARTESIAN_POINT('',(-0.44370549034,-0.116890949791,1.606127284153
));
#122 = CARTESIAN_POINT('',(-0.458192378634,-4.787094020992E-002,
1.638333714562));
#123 = CARTESIAN_POINT('',(-0.460266080727,2.312335298755E-002,
1.667560141874));
#124 = CARTESIAN_POINT('',(-0.449569188402,9.378189047635E-002,
1.69300726416));
#125 = CARTESIAN_POINT('',(-0.42607853319,0.161637962286,1.713302138245)
);
#126 = CARTESIAN_POINT('',(-0.370992848012,0.257617719433,1.73372214759)
);
#127 = CARTESIAN_POINT('',(-0.348132740797,0.289622325916,1.738828611747
));
#128 = CARTESIAN_POINT('',(-0.321809645245,0.3195639217,1.741593863334)
);
#129 = CARTESIAN_POINT('',(-0.292202463722,0.346957792574,1.74168742436)
);
#130 = CARTESIAN_POINT('',(-0.259607328093,0.371308128079,1.738777149995
));
#131 = CARTESIAN_POINT('',(-0.224456856992,0.39215744053,1.7326023581));
#132 = CARTESIAN_POINT('',(-0.152324673094,0.425180458659,1.714119702491
));
#133 = CARTESIAN_POINT('',(-0.115557840402,0.437789245282,1.702183977369
));
#134 = CARTESIAN_POINT('',(-7.749504943877E-002,0.446691927069,
1.687214623145));
#135 = CARTESIAN_POINT('',(-3.874894730277E-002,0.451671466655,
1.669289341992));
#136 = CARTESIAN_POINT('',(-4.164702836342E-005,0.452682525655,
1.64873910597));
#137 = CARTESIAN_POINT('',(3.785343956387E-002,0.449916933742,
1.626162025907));
#138 = CARTESIAN_POINT('',(0.111037727323,0.437681885993,1.578198437377)
);
#139 = CARTESIAN_POINT('',(0.146467949734,0.428092100666,1.552657843296)
);
#140 = CARTESIAN_POINT('',(0.180228538164,0.415405769704,1.526160844399)
);
#141 = CARTESIAN_POINT('',(0.212146050968,0.399930695193,1.49911561244)
);
#142 = CARTESIAN_POINT('',(0.242103952468,0.381929561117,1.471872039988)
);
#143 = CARTESIAN_POINT('',(0.270013479059,0.361610990034,1.444719554031)
);
#144 = CARTESIAN_POINT('',(0.336780771753,0.303376538229,1.375264751938)
);
#145 = CARTESIAN_POINT('',(0.372319174894,0.262202545708,1.333540220638)
);
#146 = CARTESIAN_POINT('',(0.402027779304,0.216299956065,1.293781339835)
);
#147 = CARTESIAN_POINT('',(0.425362471886,0.166252373646,1.256992667073)
);
#148 = CARTESIAN_POINT('',(0.441606688585,0.112778651284,1.224223180729)
);
#149 = CARTESIAN_POINT('',(0.45,5.689567884805E-002,1.196504889134));
#150 = CARTESIAN_POINT('',(0.45,-1.665334536938E-016,1.174641824217));
#151 = TOROIDAL_SURFACE('',#152,8.55487804878,2.19512195122);
#152 = AXIS2_PLACEMENT_3D('',#153,#154,#155);
#153 = CARTESIAN_POINT('',(5.,-0.72012195122,10.78));
#154 = DIRECTION('',(0.E+000,1.,0.E+000));
#155 = DIRECTION('',(1.,0.E+000,0.E+000));
#156 = ADVANCED_FACE('',(#157,#177),#253,.T.);
#157 = FACE_BOUND('',#158,.T.);
#158 = EDGE_LOOP('',(#159,#160,#169,#176));
#159 = ORIENTED_EDGE('',*,*,#31,.T.);
#160 = ORIENTED_EDGE('',*,*,#161,.T.);
#161 = EDGE_CURVE('',#24,#162,#164,.T.);
#162 = VERTEX_POINT('',#163);
#163 = CARTESIAN_POINT('',(13.55487804878,-3.025,10.78));
#164 = CIRCLE('',#165,2.19512195122);
#165 = AXIS2_PLACEMENT_3D('',#166,#167,#168);
#166 = CARTESIAN_POINT('',(13.55487804878,-0.82987804878,10.78));
#167 = DIRECTION('',(0.E+000,0.E+000,-1.));
#168 = DIRECTION('',(1.,0.E+000,0.E+000));
#169 = ORIENTED_EDGE('',*,*,#170,.F.);
#170 = EDGE_CURVE('',#162,#162,#171,.T.);
#171 = CIRCLE('',#172,8.55487804878);
#172 = AXIS2_PLACEMENT_3D('',#173,#174,#175);
#173 = CARTESIAN_POINT('',(5.,-3.025,10.78));
#174 = DIRECTION('',(0.E+000,-1.,0.E+000));
#175 = DIRECTION('',(1.,0.E+000,0.E+000));
#176 = ORIENTED_EDGE('',*,*,#161,.F.);
#177 = FACE_BOUND('',#178,.T.);
#178 = EDGE_LOOP('',(#179,#203));
#179 = ORIENTED_EDGE('',*,*,#180,.T.);
#180 = EDGE_CURVE('',#181,#183,#185,.T.);
#181 = VERTEX_POINT('',#182);
#182 = CARTESIAN_POINT('',(10.45,-1.55,1.655149004774));
#183 = VERTEX_POINT('',#184);
#184 = CARTESIAN_POINT('',(9.790916271668,-1.15152290587,1.183084378749)
);
#185 = B_SPLINE_CURVE_WITH_KNOTS('',6,(#186,#187,#188,#189,#190,#191,
#192,#193,#194,#195,#196,#197,#198,#199,#200,#201,#202),
.UNSPECIFIED.,.F.,.F.,(7,5,5,7),(0.E+000,0.281242202925,0.717380787709
,1.),.UNSPECIFIED.);
#186 = CARTESIAN_POINT('',(10.45,-1.55,1.655149004774));
#187 = CARTESIAN_POINT('',(10.45,-1.508221619805,1.638249610394));
#188 = CARTESIAN_POINT('',(10.445345479839,-1.466616027879,
1.619968274748));
#189 = CARTESIAN_POINT('',(10.436108738964,-1.425735653561,
1.600530254329));
#190 = CARTESIAN_POINT('',(10.422410742231,-1.386118350786,
1.580092332617));
#191 = CARTESIAN_POINT('',(10.404426266097,-1.348290290029,
1.558770729151));
#192 = CARTESIAN_POINT('',(10.348214648489,-1.257683694785,
1.502394589502));
#193 = CARTESIAN_POINT('',(10.304329141366,-1.208201997191,
1.466279061558));
#194 = CARTESIAN_POINT('',(10.251579200082,-1.166128216315,
1.428657364583));
#195 = CARTESIAN_POINT('',(10.191137600884,-1.133438866297,
1.389872502497));
#196 = CARTESIAN_POINT('',(10.124933305251,-1.112088615162,
1.350637857002));
#197 = CARTESIAN_POINT('',(10.010754385788,-1.097859231482,
1.287640622868));
#198 = CARTESIAN_POINT('',(9.964615211924,-1.097609367888,1.263320525473
));
#199 = CARTESIAN_POINT('',(9.91853652143,-1.10313194807,1.240155067898)
);
#200 = CARTESIAN_POINT('',(9.873725435214,-1.114240994542,1.218764113195
));
#201 = CARTESIAN_POINT('',(9.830992303743,-1.130494730533,1.199609524691
));
#202 = CARTESIAN_POINT('',(9.790916271668,-1.15152290587,1.183084378749)
);
#203 = ORIENTED_EDGE('',*,*,#204,.T.);
#204 = EDGE_CURVE('',#183,#181,#205,.T.);
#205 = B_SPLINE_CURVE_WITH_KNOTS('',6,(#206,#207,#208,#209,#210,#211,
#212,#213,#214,#215,#216,#217,#218,#219,#220,#221,#222,#223,#224,
#225,#226,#227,#228,#229,#230,#231,#232,#233,#234,#235,#236,#237,
#238,#239,#240,#241,#242,#243,#244,#245,#246,#247,#248,#249,#250,
#251,#252),.UNSPECIFIED.,.F.,.F.,(7,5,5,5,5,5,5,5,5,7),(0.E+000,
5.713313455327E-002,0.157159703152,0.262240237967,0.313988100311,
0.466357062037,0.605909513966,0.733920356664,0.864086380083,1.),
.UNSPECIFIED.);
#206 = CARTESIAN_POINT('',(9.790916271668,-1.15152290587,1.183084378749)
);
#207 = CARTESIAN_POINT('',(9.774104616074,-1.160344099566,1.176152178933
));
#208 = CARTESIAN_POINT('',(9.757767969145,-1.17000144535,1.169685641464)
);
#209 = CARTESIAN_POINT('',(9.741956686381,-1.180461836644,1.163717104242
));
#210 = CARTESIAN_POINT('',(9.726718173299,-1.19168801218,1.158277104304)
);
#211 = CARTESIAN_POINT('',(9.71209688543,-1.203638556003,1.15339437783)
);
#212 = CARTESIAN_POINT('',(9.673689202247,-1.238378879136,1.141570175122
));
#213 = CARTESIAN_POINT('',(9.651260264537,-1.262572693205,1.135833696115
));
#214 = CARTESIAN_POINT('',(9.631075132177,-1.288600256491,1.13203018213)
);
#215 = CARTESIAN_POINT('',(9.613320551805,-1.316171638558,1.130271298848
));
#216 = CARTESIAN_POINT('',(9.598130513469,-1.344965619924,1.130618930394
));
#217 = CARTESIAN_POINT('',(9.572383800328,-1.40581217752,1.135639768398)
);
#218 = CARTESIAN_POINT('',(9.562096829743,-1.437963942191,1.140531208738
));
#219 = CARTESIAN_POINT('',(9.554796524176,-1.47069584774,1.147738294624)
);
#220 = CARTESIAN_POINT('',(9.550470981538,-1.503627502239,1.157177527573
));
#221 = CARTESIAN_POINT('',(9.549041573904,-1.536413416814,1.168706008883
));
#222 = CARTESIAN_POINT('',(9.551055828612,-1.584688777365,1.188758706104
));
#223 = CARTESIAN_POINT('',(9.552394645896,-1.60051238131,1.195838656433)
);
#224 = CARTESIAN_POINT('',(9.554393321563,-1.616196313465,1.203360410553
));
#225 = CARTESIAN_POINT('',(9.557036519499,-1.631709518014,1.21130143453)
);
#226 = CARTESIAN_POINT('',(9.560307893077,-1.647023985791,1.219638121321
));
#227 = CARTESIAN_POINT('',(9.575621003266,-1.706548758337,1.253985082773
));
#228 = CARTESIAN_POINT('',(9.592345744267,-1.749029499608,1.282834136971
));
#229 = CARTESIAN_POINT('',(9.613934804733,-1.788944273582,1.314283992121
));
#230 = CARTESIAN_POINT('',(9.639960433409,-1.825840673356,1.347682794808
));
#231 = CARTESIAN_POINT('',(9.670087349427,-1.859341586664,1.382397492943
));
#232 = CARTESIAN_POINT('',(9.735190108182,-1.916172656599,1.4501433873)
);
#233 = CARTESIAN_POINT('',(9.769511760001,-1.940092512103,1.483036281602
));
#234 = CARTESIAN_POINT('',(9.806871232603,-1.960470861074,1.515960086404
));
#235 = CARTESIAN_POINT('',(9.84709751919,-1.976861777865,1.548324947849)
);
#236 = CARTESIAN_POINT('',(9.889900405916,-1.988669358615,1.579340598923
));
#237 = CARTESIAN_POINT('',(9.975848715132,-2.001269258486,1.634546528775
));
#238 = CARTESIAN_POINT('',(10.018845770033,-2.002917618301,
1.659200939337));
#239 = CARTESIAN_POINT('',(10.062534486247,-1.999497711898,
1.680886988587));
#240 = CARTESIAN_POINT('',(10.105681750751,-1.990889893637,
1.698804660014));
#241 = CARTESIAN_POINT('',(10.147279190543,-1.977406271021,
1.712776808933));
#242 = CARTESIAN_POINT('',(10.226584739033,-1.941267223993,1.73319759542
));
#243 = CARTESIAN_POINT('',(10.264215392704,-1.918461382561,
1.739516278596));
#244 = CARTESIAN_POINT('',(10.298709812288,-1.891542281998,
1.741958923295));
#245 = CARTESIAN_POINT('',(10.329511410175,-1.861173904558,1.7409390207)
);
#246 = CARTESIAN_POINT('',(10.356300068001,-1.828038380299,
1.736921864023));
#247 = CARTESIAN_POINT('',(10.402499208662,-1.755931742424,1.72343745203
));
#248 = CARTESIAN_POINT('',(10.421531097895,-1.716768566175,
1.713737552309));
#249 = CARTESIAN_POINT('',(10.435813694716,-1.675965883669,
1.701698939754));
#250 = CARTESIAN_POINT('',(10.445294646398,-1.634179197887,
1.687732112114));
#251 = CARTESIAN_POINT('',(10.45,-1.592006125123,1.672140522193));
#252 = CARTESIAN_POINT('',(10.45,-1.55,1.655149004774));
#253 = TOROIDAL_SURFACE('',#254,8.55487804878,2.19512195122);
#254 = AXIS2_PLACEMENT_3D('',#255,#256,#257);
#255 = CARTESIAN_POINT('',(5.,-0.82987804878,10.78));
#256 = DIRECTION('',(0.E+000,-1.,0.E+000));
#257 = DIRECTION('',(1.,0.E+000,0.E+000));
#258 = ADVANCED_FACE('',(#259),#262,.F.);
#259 = FACE_BOUND('',#260,.F.);
#260 = EDGE_LOOP('',(#261));
#261 = ORIENTED_EDGE('',*,*,#64,.T.);
#262 = PLANE('',#263);
#263 = AXIS2_PLACEMENT_3D('',#264,#265,#266);
#264 = CARTESIAN_POINT('',(5.,1.475,10.78));
#265 = DIRECTION('',(-0.E+000,-1.,-0.E+000));
#266 = DIRECTION('',(0.E+000,0.E+000,-1.));
#267 = ADVANCED_FACE('',(#268),#288,.T.);
#268 = FACE_BOUND('',#269,.T.);
#269 = EDGE_LOOP('',(#270,#271,#279,#286,#287));
#270 = ORIENTED_EDGE('',*,*,#111,.T.);
#271 = ORIENTED_EDGE('',*,*,#272,.T.);
#272 = EDGE_CURVE('',#75,#273,#275,.T.);
#273 = VERTEX_POINT('',#274);
#274 = CARTESIAN_POINT('',(0.45,0.E+000,-2.82));
#275 = LINE('',#276,#277);
#276 = CARTESIAN_POINT('',(0.45,0.E+000,10.78));
#277 = VECTOR('',#278,1.);
#278 = DIRECTION('',(-0.E+000,-0.E+000,-1.));
#279 = ORIENTED_EDGE('',*,*,#280,.T.);
#280 = EDGE_CURVE('',#273,#273,#281,.T.);
#281 = CIRCLE('',#282,0.45);
#282 = AXIS2_PLACEMENT_3D('',#283,#284,#285);
#283 = CARTESIAN_POINT('',(0.E+000,0.E+000,-2.82));
#284 = DIRECTION('',(0.E+000,0.E+000,1.));
#285 = DIRECTION('',(1.,0.E+000,0.E+000));
#286 = ORIENTED_EDGE('',*,*,#272,.F.);
#287 = ORIENTED_EDGE('',*,*,#74,.T.);
#288 = CYLINDRICAL_SURFACE('',#289,0.45);
#289 = AXIS2_PLACEMENT_3D('',#290,#291,#292);
#290 = CARTESIAN_POINT('',(0.E+000,0.E+000,10.78));
#291 = DIRECTION('',(0.E+000,0.E+000,1.));
#292 = DIRECTION('',(1.,0.E+000,0.E+000));
#293 = ADVANCED_FACE('',(#294),#297,.T.);
#294 = FACE_BOUND('',#295,.T.);
#295 = EDGE_LOOP('',(#296));
#296 = ORIENTED_EDGE('',*,*,#170,.T.);
#297 = PLANE('',#298);
#298 = AXIS2_PLACEMENT_3D('',#299,#300,#301);
#299 = CARTESIAN_POINT('',(5.,-3.025,10.78));
#300 = DIRECTION('',(-0.E+000,-1.,-0.E+000));
#301 = DIRECTION('',(0.E+000,0.E+000,-1.));
#302 = ADVANCED_FACE('',(#303),#323,.T.);
#303 = FACE_BOUND('',#304,.T.);
#304 = EDGE_LOOP('',(#305,#306,#314,#321,#322));
#305 = ORIENTED_EDGE('',*,*,#180,.F.);
#306 = ORIENTED_EDGE('',*,*,#307,.T.);
#307 = EDGE_CURVE('',#181,#308,#310,.T.);
#308 = VERTEX_POINT('',#309);
#309 = CARTESIAN_POINT('',(10.45,-1.55,-2.82));
#310 = LINE('',#311,#312);
#311 = CARTESIAN_POINT('',(10.45,-1.55,10.78));
#312 = VECTOR('',#313,1.);
#313 = DIRECTION('',(-0.E+000,-0.E+000,-1.));
#314 = ORIENTED_EDGE('',*,*,#315,.T.);
#315 = EDGE_CURVE('',#308,#308,#316,.T.);
#316 = CIRCLE('',#317,0.45);
#317 = AXIS2_PLACEMENT_3D('',#318,#319,#320);
#318 = CARTESIAN_POINT('',(10.,-1.55,-2.82));
#319 = DIRECTION('',(-1.460853528187E-030,1.2985364695E-030,1.));
#320 = DIRECTION('',(1.,5.194145877998E-031,1.460853528187E-030));
#321 = ORIENTED_EDGE('',*,*,#307,.F.);
#322 = ORIENTED_EDGE('',*,*,#204,.F.);
#323 = CYLINDRICAL_SURFACE('',#324,0.45);
#324 = AXIS2_PLACEMENT_3D('',#325,#326,#327);
#325 = CARTESIAN_POINT('',(10.,-1.55,10.78));
#326 = DIRECTION('',(0.E+000,0.E+000,1.));
#327 = DIRECTION('',(1.,0.E+000,0.E+000));
#328 = ADVANCED_FACE('',(#329),#349,.T.);
#329 = FACE_BOUND('',#330,.F.);
#330 = EDGE_LOOP('',(#331,#340,#341,#342));
#331 = ORIENTED_EDGE('',*,*,#332,.F.);
#332 = EDGE_CURVE('',#273,#333,#335,.T.);
#333 = VERTEX_POINT('',#334);
#334 = CARTESIAN_POINT('',(0.27,0.E+000,-3.));
#335 = CIRCLE('',#336,0.18);
#336 = AXIS2_PLACEMENT_3D('',#337,#338,#339);
#337 = CARTESIAN_POINT('',(0.27,0.E+000,-2.82));
#338 = DIRECTION('',(-0.E+000,1.,0.E+000));
#339 = DIRECTION('',(1.,0.E+000,0.E+000));
#340 = ORIENTED_EDGE('',*,*,#280,.T.);
#341 = ORIENTED_EDGE('',*,*,#332,.T.);
#342 = ORIENTED_EDGE('',*,*,#343,.F.);
#343 = EDGE_CURVE('',#333,#333,#344,.T.);
#344 = CIRCLE('',#345,0.27);
#345 = AXIS2_PLACEMENT_3D('',#346,#347,#348);
#346 = CARTESIAN_POINT('',(0.E+000,0.E+000,-3.));
#347 = DIRECTION('',(0.E+000,0.E+000,1.));
#348 = DIRECTION('',(1.,0.E+000,0.E+000));
#349 = TOROIDAL_SURFACE('',#350,0.27,0.18);
#350 = AXIS2_PLACEMENT_3D('',#351,#352,#353);
#351 = CARTESIAN_POINT('',(0.E+000,0.E+000,-2.82));
#352 = DIRECTION('',(-0.E+000,-0.E+000,-1.));
#353 = DIRECTION('',(1.,0.E+000,0.E+000));
#354 = ADVANCED_FACE('',(#355),#375,.T.);
#355 = FACE_BOUND('',#356,.F.);
#356 = EDGE_LOOP('',(#357,#366,#367,#368));
#357 = ORIENTED_EDGE('',*,*,#358,.F.);
#358 = EDGE_CURVE('',#308,#359,#361,.T.);
#359 = VERTEX_POINT('',#360);
#360 = CARTESIAN_POINT('',(10.27,-1.55,-3.));
#361 = CIRCLE('',#362,0.18);
#362 = AXIS2_PLACEMENT_3D('',#363,#364,#365);
#363 = CARTESIAN_POINT('',(10.27,-1.55,-2.82));
#364 = DIRECTION('',(-5.194145877998E-031,1.,-1.2985364695E-030));
#365 = DIRECTION('',(1.,5.194145877998E-031,1.460853528187E-030));
#366 = ORIENTED_EDGE('',*,*,#315,.T.);
#367 = ORIENTED_EDGE('',*,*,#358,.T.);
#368 = ORIENTED_EDGE('',*,*,#369,.F.);
#369 = EDGE_CURVE('',#359,#359,#370,.T.);
#370 = CIRCLE('',#371,0.27);
#371 = AXIS2_PLACEMENT_3D('',#372,#373,#374);
#372 = CARTESIAN_POINT('',(10.,-1.55,-3.));
#373 = DIRECTION('',(-1.460853528187E-030,1.2985364695E-030,1.));
#374 = DIRECTION('',(1.,5.194145877998E-031,1.460853528187E-030));
#375 = TOROIDAL_SURFACE('',#376,0.27,0.18);
#376 = AXIS2_PLACEMENT_3D('',#377,#378,#379);
#377 = CARTESIAN_POINT('',(10.,-1.55,-2.82));
#378 = DIRECTION('',(1.460853528187E-030,-1.2985364695E-030,-1.));
#379 = DIRECTION('',(1.,5.194145877998E-031,1.460853528187E-030));
#380 = ADVANCED_FACE('',(#381),#384,.F.);
#381 = FACE_BOUND('',#382,.F.);
#382 = EDGE_LOOP('',(#383));
#383 = ORIENTED_EDGE('',*,*,#343,.T.);
#384 = PLANE('',#385);
#385 = AXIS2_PLACEMENT_3D('',#386,#387,#388);
#386 = CARTESIAN_POINT('',(-1.18701400394E-017,2.911085817041E-017,-3.)
);
#387 = DIRECTION('',(0.E+000,0.E+000,1.));
#388 = DIRECTION('',(1.,0.E+000,0.E+000));
#389 = ADVANCED_FACE('',(#390),#393,.F.);
#390 = FACE_BOUND('',#391,.F.);
#391 = EDGE_LOOP('',(#392));
#392 = ORIENTED_EDGE('',*,*,#369,.T.);
#393 = PLANE('',#394);
#394 = AXIS2_PLACEMENT_3D('',#395,#396,#397);
#395 = CARTESIAN_POINT('',(10.,-1.55,-3.));
#396 = DIRECTION('',(-1.460853528187E-030,1.2985364695E-030,1.));
#397 = DIRECTION('',(1.,0.E+000,1.460853528187E-030));
#398 = ( GEOMETRIC_REPRESENTATION_CONTEXT(3)
GLOBAL_UNCERTAINTY_ASSIGNED_CONTEXT((#402)) GLOBAL_UNIT_ASSIGNED_CONTEXT
((#399,#400,#401)) REPRESENTATION_CONTEXT('Context #1',
'3D Context with UNIT and UNCERTAINTY') );
#399 = ( LENGTH_UNIT() NAMED_UNIT(*) SI_UNIT(.MILLI.,.METRE.) );
#400 = ( NAMED_UNIT(*) PLANE_ANGLE_UNIT() SI_UNIT($,.RADIAN.) );
#401 = ( NAMED_UNIT(*) SI_UNIT($,.STERADIAN.) SOLID_ANGLE_UNIT() );
#402 = UNCERTAINTY_MEASURE_WITH_UNIT(LENGTH_MEASURE(1.E-007),#399,
'distance_accuracy_value','confusion accuracy');
#403 = PRODUCT_RELATED_PRODUCT_CATEGORY('part',$,(#7));
#404 = MECHANICAL_DESIGN_GEOMETRIC_PRESENTATION_REPRESENTATION('',(#405,
#413,#420,#427,#434,#442,#449,#456,#463,#470,#477),#398);
#405 = STYLED_ITEM('color',(#406),#17);
#406 = PRESENTATION_STYLE_ASSIGNMENT((#407));
#407 = SURFACE_STYLE_USAGE(.BOTH.,#408);
#408 = SURFACE_SIDE_STYLE('',(#409));
#409 = SURFACE_STYLE_FILL_AREA(#410);
#410 = FILL_AREA_STYLE('',(#411));
#411 = FILL_AREA_STYLE_COLOUR('',#412);
#412 = COLOUR_RGB('',0.136999994516,0.402000010014,0.726999998093);
#413 = STYLED_ITEM('color',(#414),#50);
#414 = PRESENTATION_STYLE_ASSIGNMENT((#415));
#415 = SURFACE_STYLE_USAGE(.BOTH.,#416);
#416 = SURFACE_SIDE_STYLE('',(#417));
#417 = SURFACE_STYLE_FILL_AREA(#418);
#418 = FILL_AREA_STYLE('',(#419));
#419 = FILL_AREA_STYLE_COLOUR('',#412);
#420 = STYLED_ITEM('color',(#421),#156);
#421 = PRESENTATION_STYLE_ASSIGNMENT((#422));
#422 = SURFACE_STYLE_USAGE(.BOTH.,#423);
#423 = SURFACE_SIDE_STYLE('',(#424));
#424 = SURFACE_STYLE_FILL_AREA(#425);
#425 = FILL_AREA_STYLE('',(#426));
#426 = FILL_AREA_STYLE_COLOUR('',#412);
#427 = STYLED_ITEM('color',(#428),#258);
#428 = PRESENTATION_STYLE_ASSIGNMENT((#429));
#429 = SURFACE_STYLE_USAGE(.BOTH.,#430);
#430 = SURFACE_SIDE_STYLE('',(#431));
#431 = SURFACE_STYLE_FILL_AREA(#432);
#432 = FILL_AREA_STYLE('',(#433));
#433 = FILL_AREA_STYLE_COLOUR('',#412);
#434 = STYLED_ITEM('color',(#435),#267);
#435 = PRESENTATION_STYLE_ASSIGNMENT((#436));
#436 = SURFACE_STYLE_USAGE(.BOTH.,#437);
#437 = SURFACE_SIDE_STYLE('',(#438));
#438 = SURFACE_STYLE_FILL_AREA(#439);
#439 = FILL_AREA_STYLE('',(#440));
#440 = FILL_AREA_STYLE_COLOUR('',#441);
#441 = COLOUR_RGB('',0.824000000954,0.819999992847,0.78100001812);
#442 = STYLED_ITEM('color',(#443),#293);
#443 = PRESENTATION_STYLE_ASSIGNMENT((#444));
#444 = SURFACE_STYLE_USAGE(.BOTH.,#445);
#445 = SURFACE_SIDE_STYLE('',(#446));
#446 = SURFACE_STYLE_FILL_AREA(#447);
#447 = FILL_AREA_STYLE('',(#448));
#448 = FILL_AREA_STYLE_COLOUR('',#412);
#449 = STYLED_ITEM('color',(#450),#302);
#450 = PRESENTATION_STYLE_ASSIGNMENT((#451));
#451 = SURFACE_STYLE_USAGE(.BOTH.,#452);
#452 = SURFACE_SIDE_STYLE('',(#453));
#453 = SURFACE_STYLE_FILL_AREA(#454);
#454 = FILL_AREA_STYLE('',(#455));
#455 = FILL_AREA_STYLE_COLOUR('',#441);
#456 = STYLED_ITEM('color',(#457),#328);
#457 = PRESENTATION_STYLE_ASSIGNMENT((#458));
#458 = SURFACE_STYLE_USAGE(.BOTH.,#459);
#459 = SURFACE_SIDE_STYLE('',(#460));
#460 = SURFACE_STYLE_FILL_AREA(#461);
#461 = FILL_AREA_STYLE('',(#462));
#462 = FILL_AREA_STYLE_COLOUR('',#441);
#463 = STYLED_ITEM('color',(#464),#354);
#464 = PRESENTATION_STYLE_ASSIGNMENT((#465));
#465 = SURFACE_STYLE_USAGE(.BOTH.,#466);
#466 = SURFACE_SIDE_STYLE('',(#467));
#467 = SURFACE_STYLE_FILL_AREA(#468);
#468 = FILL_AREA_STYLE('',(#469));
#469 = FILL_AREA_STYLE_COLOUR('',#441);
#470 = STYLED_ITEM('color',(#471),#380);
#471 = PRESENTATION_STYLE_ASSIGNMENT((#472));
#472 = SURFACE_STYLE_USAGE(.BOTH.,#473);
#473 = SURFACE_SIDE_STYLE('',(#474));
#474 = SURFACE_STYLE_FILL_AREA(#475);
#475 = FILL_AREA_STYLE('',(#476));
#476 = FILL_AREA_STYLE_COLOUR('',#441);
#477 = STYLED_ITEM('color',(#478),#389);
#478 = PRESENTATION_STYLE_ASSIGNMENT((#479));
#479 = SURFACE_STYLE_USAGE(.BOTH.,#480);
#480 = SURFACE_SIDE_STYLE('',(#481));
#481 = SURFACE_STYLE_FILL_AREA(#482);
#482 = FILL_AREA_STYLE('',(#483));
#483 = FILL_AREA_STYLE_COLOUR('',#441);
ENDSEC;
END-ISO-10303-21;
