ISO-10303-21;
HEADER;
/* RV_Disc_D12mm_W4.2mm_P7.5mm.step 3D STEP model for use in ECAD systems
 * Copyright (C) 2018, kicad StepUp
 * 
 * This work is licensed under the [Creative Commons CC-BY-SA 4.0 License](https://creativecommons.org/licenses/by-sa/4.0/legalcode), 
 * with the following exception:
 * To the extent that the creation of electronic designs that use 'Licensed Material' can be considered to be 'Adapted Material', 
 * then the copyright holder waives article 3 of the license with respect to these designs and any generated files which use data provided 
 * as part of the 'Licensed Material'.
 * You are free to use the library data in your own projects without the obligation to share your project files under this or any other license agreement.
 * However, if you wish to redistribute these libraries, or parts thereof (including in modified form) as a collection then the exception above does not apply. 
 * Please refer to https://github.com/KiCad/kicad-packages3D/blob/master/LICENSE.md for further clarification of the exception.
 * Disclaimer of Warranties and Limitation of Liability.
 * These libraries are provided in the hope that they will be useful, but are provided without warranty of any kind, express or implied.
 * *USE 3D CAD DATA AT YOUR OWN RISK*
 * *DO NOT RELY UPON ANY INFORMATION FOUND HERE WITHOUT INDEPENDENT VERIFICATION.*
 * 
 */

FILE_DESCRIPTION(
/* description */ ('model of RV_Disc_D12mm_W4.2mm_P7.5mm'),
/* implementation_level */ '2;1');

FILE_NAME(
/* name */ 'RV_Disc_D12mm_W4.2mm_P7.5mm.step',
/* time_stamp */ '2018-11-11T20:33:41',
/* author */ ('kicad StepUp','ksu'),
/* organization */ ('FreeCAD'),
/* preprocessor_version */ 'OCC',
/* originating_system */ 'kicad StepUp',
/* authorisation */ '');

FILE_SCHEMA(('AUTOMOTIVE_DESIGN { 1 0 10303 214 1 1 1 1 }'));
ENDSEC;

DATA;
#1 = APPLICATION_PROTOCOL_DEFINITION('international standard',
'automotive_design',2000,#2);
#2 = APPLICATION_CONTEXT(
'core data for automotive mechanical design processes');
#3 = SHAPE_DEFINITION_REPRESENTATION(#4,#10);
#4 = PRODUCT_DEFINITION_SHAPE('','',#5);
#5 = PRODUCT_DEFINITION('design','',#6,#9);
#6 = PRODUCT_DEFINITION_FORMATION('','',#7);
#7 = PRODUCT('RV_Disc_D12mm_W42mm_P75mm','RV_Disc_D12mm_W42mm_P75mm','',
(#8));
#8 = PRODUCT_CONTEXT('',#2,'mechanical');
#9 = PRODUCT_DEFINITION_CONTEXT('part definition',#2,'design');
#10 = ADVANCED_BREP_SHAPE_REPRESENTATION('',(#11,#15),#400);
#11 = AXIS2_PLACEMENT_3D('',#12,#13,#14);
#12 = CARTESIAN_POINT('',(0.E+000,0.E+000,0.E+000));
#13 = DIRECTION('',(0.E+000,0.E+000,1.));
#14 = DIRECTION('',(1.,0.E+000,-0.E+000));
#15 = MANIFOLD_SOLID_BREP('',#16);
#16 = CLOSED_SHELL('',(#17,#50,#158,#260,#269,#295,#304,#330,#356,#382,
#391));
#17 = ADVANCED_FACE('',(#18),#45,.T.);
#18 = FACE_BOUND('',#19,.F.);
#19 = EDGE_LOOP('',(#20,#30,#37,#38));
#20 = ORIENTED_EDGE('',*,*,#21,.T.);
#21 = EDGE_CURVE('',#22,#24,#26,.T.);
#22 = VERTEX_POINT('',#23);
#23 = CARTESIAN_POINT('',(9.75,-0.765445487805,6.03));
#24 = VERTEX_POINT('',#25);
#25 = CARTESIAN_POINT('',(9.75,-0.867884512195,6.03));
#26 = LINE('',#27,#28);
#27 = CARTESIAN_POINT('',(9.75,1.283335,6.03));
#28 = VECTOR('',#29,1.);
#29 = DIRECTION('',(0.E+000,-1.,0.E+000));
#30 = ORIENTED_EDGE('',*,*,#31,.T.);
#31 = EDGE_CURVE('',#24,#24,#32,.T.);
#32 = CIRCLE('',#33,6.);
#33 = AXIS2_PLACEMENT_3D('',#34,#35,#36);
#34 = CARTESIAN_POINT('',(3.75,-0.867884512195,6.03));
#35 = DIRECTION('',(0.E+000,-1.,0.E+000));
#36 = DIRECTION('',(1.,0.E+000,0.E+000));
#37 = ORIENTED_EDGE('',*,*,#21,.F.);
#38 = ORIENTED_EDGE('',*,*,#39,.F.);
#39 = EDGE_CURVE('',#22,#22,#40,.T.);
#40 = CIRCLE('',#41,6.);
#41 = AXIS2_PLACEMENT_3D('',#42,#43,#44);
#42 = CARTESIAN_POINT('',(3.75,-0.765445487805,6.03));
#43 = DIRECTION('',(0.E+000,-1.,0.E+000));
#44 = DIRECTION('',(1.,0.E+000,0.E+000));
#45 = CYLINDRICAL_SURFACE('',#46,6.);
#46 = AXIS2_PLACEMENT_3D('',#47,#48,#49);
#47 = CARTESIAN_POINT('',(3.75,1.283335,6.03));
#48 = DIRECTION('',(0.E+000,1.,0.E+000));
#49 = DIRECTION('',(1.,0.E+000,0.E+000));
#50 = ADVANCED_FACE('',(#51,#71),#153,.T.);
#51 = FACE_BOUND('',#52,.F.);
#52 = EDGE_LOOP('',(#53,#54,#63,#70));
#53 = ORIENTED_EDGE('',*,*,#39,.T.);
#54 = ORIENTED_EDGE('',*,*,#55,.T.);
#55 = EDGE_CURVE('',#22,#56,#58,.T.);
#56 = VERTEX_POINT('',#57);
#57 = CARTESIAN_POINT('',(7.701219512195,1.283335,6.03));
#58 = CIRCLE('',#59,2.048780487805);
#59 = AXIS2_PLACEMENT_3D('',#60,#61,#62);
#60 = CARTESIAN_POINT('',(7.701219512195,-0.765445487805,6.03));
#61 = DIRECTION('',(0.E+000,0.E+000,1.));
#62 = DIRECTION('',(1.,0.E+000,0.E+000));
#63 = ORIENTED_EDGE('',*,*,#64,.F.);
#64 = EDGE_CURVE('',#56,#56,#65,.T.);
#65 = CIRCLE('',#66,3.951219512195);
#66 = AXIS2_PLACEMENT_3D('',#67,#68,#69);
#67 = CARTESIAN_POINT('',(3.75,1.283335,6.03));
#68 = DIRECTION('',(0.E+000,-1.,0.E+000));
#69 = DIRECTION('',(1.,0.E+000,0.E+000));
#70 = ORIENTED_EDGE('',*,*,#55,.F.);
#71 = FACE_BOUND('',#72,.F.);
#72 = EDGE_LOOP('',(#73,#112));
#73 = ORIENTED_EDGE('',*,*,#74,.T.);
#74 = EDGE_CURVE('',#75,#77,#79,.T.);
#75 = VERTEX_POINT('',#76);
#76 = CARTESIAN_POINT('',(0.36,0.E+000,1.260347977967));
#77 = VERTEX_POINT('',#78);
#78 = CARTESIAN_POINT('',(-0.335608207246,-0.130257941136,1.774817242156
));
#79 = B_SPLINE_CURVE_WITH_KNOTS('',7,(#80,#81,#82,#83,#84,#85,#86,#87,
#88,#89,#90,#91,#92,#93,#94,#95,#96,#97,#98,#99,#100,#101,#102,#103,
#104,#105,#106,#107,#108,#109,#110,#111),.UNSPECIFIED.,.F.,.F.,(8,6,
6,6,6,8),(0.E+000,0.146921586376,0.312916419737,0.406470370439,
0.78805922263,1.),.UNSPECIFIED.);
#80 = CARTESIAN_POINT('',(0.36,-1.110223024625E-016,1.260347977967));
#81 = CARTESIAN_POINT('',(0.36,-2.070651719738E-002,1.250115927798));
#82 = CARTESIAN_POINT('',(0.35861052225,-4.162437003888E-002,
1.241150798425));
#83 = CARTESIAN_POINT('',(0.355780384723,-6.263634039015E-002,
1.233544431248));
#84 = CARTESIAN_POINT('',(0.351471509896,-8.360630026786E-002,
1.227378929715));
#85 = CARTESIAN_POINT('',(0.345665747213,-0.104383877244,1.222719669781)
);
#86 = CARTESIAN_POINT('',(0.338371695554,-0.124809119853,1.219608310363)
);
#87 = CARTESIAN_POINT('',(0.319756713739,-0.167209652932,1.216301752026)
);
#88 = CARTESIAN_POINT('',(0.308032820337,-0.189049639398,1.216536998015)
);
#89 = CARTESIAN_POINT('',(0.294519592729,-0.209995803575,1.21878019638)
);
#90 = CARTESIAN_POINT('',(0.279322357157,-0.229828975455,1.222996264366)
);
#91 = CARTESIAN_POINT('',(0.26258240641,-0.248357100969,1.22910705765));
#92 = CARTESIAN_POINT('',(0.244467387358,-0.26542020913,1.237002046149)
);
#93 = CARTESIAN_POINT('',(0.214281082374,-0.289617116248,1.251929604873)
);
#94 = CARTESIAN_POINT('',(0.203021102153,-0.297835300548,1.257835528412)
);
#95 = CARTESIAN_POINT('',(0.191413469246,-0.305528460614,1.264243826162)
);
#96 = CARTESIAN_POINT('',(0.179491106901,-0.312678491183,1.271129855448)
);
#97 = CARTESIAN_POINT('',(0.167287734266,-0.319270508996,1.278467748943)
);
#98 = CARTESIAN_POINT('',(0.154837460458,-0.325292708614,1.286230898415)
);
#99 = CARTESIAN_POINT('',(9.05240653928E-002,-0.352939263411,
1.327681815139));
#100 = CARTESIAN_POINT('',(3.519483427678E-002,-0.365574277371,
1.367688591988));
#101 = CARTESIAN_POINT('',(-2.120678165207E-002,-0.367806261087,
1.412439224437));
#102 = CARTESIAN_POINT('',(-7.613230964952E-002,-0.360060172095,
1.459752396237));
#103 = CARTESIAN_POINT('',(-0.12771904051,-0.343398129563,1.508039322239
));
#104 = CARTESIAN_POINT('',(-0.174697676227,-0.319003439668,
1.556153668739));
#105 = CARTESIAN_POINT('',(-0.23912495567,-0.270641395699,1.629440693909
));
#106 = CARTESIAN_POINT('',(-0.260414298458,-0.251307370737,
1.655300249094));
#107 = CARTESIAN_POINT('',(-0.279817706384,-0.230091951222,1.68069987161
));
#108 = CARTESIAN_POINT('',(-0.297179194817,-0.207181903311,
1.705497881126));
#109 = CARTESIAN_POINT('',(-0.312353989388,-0.182770059333,
1.729552611109));
#110 = CARTESIAN_POINT('',(-0.325206485402,-0.157057867421,
1.752714343295));
#111 = CARTESIAN_POINT('',(-0.335608207246,-0.130257941136,
1.774817242156));
#112 = ORIENTED_EDGE('',*,*,#113,.T.);
#113 = EDGE_CURVE('',#77,#75,#114,.T.);
#114 = B_SPLINE_CURVE_WITH_KNOTS('',7,(#115,#116,#117,#118,#119,#120,
#121,#122,#123,#124,#125,#126,#127,#128,#129,#130,#131,#132,#133,
#134,#135,#136,#137,#138,#139,#140,#141,#142,#143,#144,#145,#146,
#147,#148,#149,#150,#151,#152),.UNSPECIFIED.,.F.,.F.,(8,6,6,6,6,6,8)
,(0.E+000,0.169444833492,0.234604843908,0.344166641562,0.456623440061,
0.706339492949,1.),.UNSPECIFIED.);
#115 = CARTESIAN_POINT('',(-0.335608207246,-0.130257941136,
1.774817242156));
#116 = CARTESIAN_POINT('',(-0.346409125581,-0.102429489317,
1.797768404389));
#117 = CARTESIAN_POINT('',(-0.3545648001,-7.343542830907E-002,
1.819572002425));
#118 = CARTESIAN_POINT('',(-0.359935843497,-4.351020926702E-002,
1.840046865149));
#119 = CARTESIAN_POINT('',(-0.362383346213,-1.291443455602E-002,
1.858980883894));
#120 = CARTESIAN_POINT('',(-0.361779713734,1.805367792258E-002,
1.876122351705));
#121 = CARTESIAN_POINT('',(-0.358024604185,4.905348278174E-002,
1.891180177502));
#122 = CARTESIAN_POINT('',(-0.348390021972,9.149030685067E-002,
1.908698608458));
#123 = CARTESIAN_POINT('',(-0.345240643933,0.103223856652,1.913208048957
));
#124 = CARTESIAN_POINT('',(-0.341615229258,0.114882052013,1.917342937409
));
#125 = CARTESIAN_POINT('',(-0.337512540533,0.126441077536,1.921084116297
));
#126 = CARTESIAN_POINT('',(-0.332933110767,0.137875866421,1.924412101465
));
#127 = CARTESIAN_POINT('',(-0.327879648413,0.149160319501,1.927307553759
));
#128 = CARTESIAN_POINT('',(-0.31307225635,0.178943477728,1.933861489217)
);
#129 = CARTESIAN_POINT('',(-0.302460861558,0.197120530291,1.936695864613
));
#130 = CARTESIAN_POINT('',(-0.290549089149,0.214667255314,1.938165151666
));
#131 = CARTESIAN_POINT('',(-0.277385659418,0.231447347216,1.938186085194
));
#132 = CARTESIAN_POINT('',(-0.26304381591,0.247326904359,1.936692025847)
);
#133 = CARTESIAN_POINT('',(-0.247622959496,0.262181711946,1.933643125933
));
#134 = CARTESIAN_POINT('',(-0.214444982801,0.289989941931,1.924308141488
));
#135 = CARTESIAN_POINT('',(-0.19663307731,0.302885982805,1.917938036097)
);
#136 = CARTESIAN_POINT('',(-0.177950802104,0.31447570633,1.909920946707)
);
#137 = CARTESIAN_POINT('',(-0.158551275036,0.324672900291,1.900292370414
));
#138 = CARTESIAN_POINT('',(-0.138597356368,0.333421396161,1.889125225092
));
#139 = CARTESIAN_POINT('',(-0.118254509445,0.340694383809,1.876526540697
));
#140 = CARTESIAN_POINT('',(-5.200504472642E-002,0.359371461596,
1.831785390241));
#141 = CARTESIAN_POINT('',(-5.242726074979E-003,0.364970706585,
1.794583676049));
#142 = CARTESIAN_POINT('',(4.082741043319E-002,0.363328092367,
1.752542813409));
#143 = CARTESIAN_POINT('',(8.489490321705E-002,0.355248617749,
1.707630757004));
#144 = CARTESIAN_POINT('',(0.126263202295,0.341562378459,1.661430586407)
);
#145 = CARTESIAN_POINT('',(0.164558643911,0.322929615261,1.615006964381)
);
#146 = CARTESIAN_POINT('',(0.240611665374,0.272294392916,1.515091096048)
);
#147 = CARTESIAN_POINT('',(0.276925963468,0.238624278032,1.462005224735)
);
#148 = CARTESIAN_POINT('',(0.307932727207,0.199333158573,1.411188428194)
);
#149 = CARTESIAN_POINT('',(0.332850649625,0.154909335177,1.363992298231)
);
#150 = CARTESIAN_POINT('',(0.350627411381,0.106015299053,1.321985976393)
);
#151 = CARTESIAN_POINT('',(0.36,5.377759507256E-002,1.286921980999));
#152 = CARTESIAN_POINT('',(0.36,-1.110223024625E-016,1.260347977967));
#153 = TOROIDAL_SURFACE('',#154,3.951219512195,2.048780487805);
#154 = AXIS2_PLACEMENT_3D('',#155,#156,#157);
#155 = CARTESIAN_POINT('',(3.75,-0.765445487805,6.03));
#156 = DIRECTION('',(0.E+000,1.,0.E+000));
#157 = DIRECTION('',(1.,0.E+000,0.E+000));
#158 = ADVANCED_FACE('',(#159,#179),#255,.T.);
#159 = FACE_BOUND('',#160,.T.);
#160 = EDGE_LOOP('',(#161,#162,#171,#178));
#161 = ORIENTED_EDGE('',*,*,#31,.T.);
#162 = ORIENTED_EDGE('',*,*,#163,.T.);
#163 = EDGE_CURVE('',#24,#164,#166,.T.);
#164 = VERTEX_POINT('',#165);
#165 = CARTESIAN_POINT('',(7.701219512195,-2.916665,6.03));
#166 = CIRCLE('',#167,2.048780487805);
#167 = AXIS2_PLACEMENT_3D('',#168,#169,#170);
#168 = CARTESIAN_POINT('',(7.701219512195,-0.867884512195,6.03));
#169 = DIRECTION('',(0.E+000,0.E+000,-1.));
#170 = DIRECTION('',(1.,0.E+000,0.E+000));
#171 = ORIENTED_EDGE('',*,*,#172,.F.);
#172 = EDGE_CURVE('',#164,#164,#173,.T.);
#173 = CIRCLE('',#174,3.951219512195);
#174 = AXIS2_PLACEMENT_3D('',#175,#176,#177);
#175 = CARTESIAN_POINT('',(3.75,-2.916665,6.03));
#176 = DIRECTION('',(0.E+000,-1.,0.E+000));
#177 = DIRECTION('',(1.,0.E+000,0.E+000));
#178 = ORIENTED_EDGE('',*,*,#163,.F.);
#179 = FACE_BOUND('',#180,.T.);
#180 = EDGE_LOOP('',(#181,#200));
#181 = ORIENTED_EDGE('',*,*,#182,.T.);
#182 = EDGE_CURVE('',#183,#185,#187,.T.);
#183 = VERTEX_POINT('',#184);
#184 = CARTESIAN_POINT('',(7.86,-1.63333,1.864717247139));
#185 = VERTEX_POINT('',#186);
#186 = CARTESIAN_POINT('',(7.563988293029,-1.279062448063,1.452335031296
));
#187 = B_SPLINE_CURVE_WITH_KNOTS('',6,(#188,#189,#190,#191,#192,#193,
#194,#195,#196,#197,#198,#199),.UNSPECIFIED.,.F.,.F.,(7,5,7),(
0.E+000,0.671776428846,1.),.UNSPECIFIED.);
#188 = CARTESIAN_POINT('',(7.86,-1.63333,1.864717247139));
#189 = CARTESIAN_POINT('',(7.86,-1.576053912975,1.832307835178));
#190 = CARTESIAN_POINT('',(7.849065019145,-1.519905646734,1.79327805656)
);
#191 = CARTESIAN_POINT('',(7.828001040736,-1.467046996196,1.749516717323
));
#192 = CARTESIAN_POINT('',(7.797856297226,-1.419227116619,1.702339218178
));
#193 = CARTESIAN_POINT('',(7.759776731344,-1.377936766629,1.652808078093
));
#194 = CARTESIAN_POINT('',(7.693205908516,-1.328348335751,1.577270044437
));
#195 = CARTESIAN_POINT('',(7.669782719386,-1.313985993028,1.552200899475
));
#196 = CARTESIAN_POINT('',(7.644943164512,-1.301704417244,1.526992851061
));
#197 = CARTESIAN_POINT('',(7.618873121151,-1.291680904782,1.501808631064
));
#198 = CARTESIAN_POINT('',(7.59179719691,-1.284085330573,1.476844018191)
);
#199 = CARTESIAN_POINT('',(7.563988293029,-1.279062448063,1.452335031296
));
#200 = ORIENTED_EDGE('',*,*,#201,.T.);
#201 = EDGE_CURVE('',#185,#183,#202,.T.);
#202 = B_SPLINE_CURVE_WITH_KNOTS('',6,(#203,#204,#205,#206,#207,#208,
#209,#210,#211,#212,#213,#214,#215,#216,#217,#218,#219,#220,#221,
#222,#223,#224,#225,#226,#227,#228,#229,#230,#231,#232,#233,#234,
#235,#236,#237,#238,#239,#240,#241,#242,#243,#244,#245,#246,#247,
#248,#249,#250,#251,#252,#253,#254),.UNSPECIFIED.,.F.,.F.,(7,5,5,5,5
,5,5,5,5,5,7),(0.E+000,0.128669234288,0.175294531172,0.263721092821,
0.359000224629,0.408232418979,0.561185781667,0.700340608829,
0.824505666034,0.927791210646,1.),.UNSPECIFIED.);
#203 = CARTESIAN_POINT('',(7.563988293029,-1.279062448063,1.452335031296
));
#204 = CARTESIAN_POINT('',(7.527099284715,-1.272399504588,1.419823421878
));
#205 = CARTESIAN_POINT('',(7.488880594661,-1.270256139787,1.388078368083
));
#206 = CARTESIAN_POINT('',(7.450082705389,-1.27300858411,1.357759142666)
);
#207 = CARTESIAN_POINT('',(7.411572162465,-1.280841711611,1.329576439836
));
#208 = CARTESIAN_POINT('',(7.374270332343,-1.293710263156,1.304279365592
));
#209 = CARTESIAN_POINT('',(7.326299824449,-1.317685082497,1.274676612715
));
#210 = CARTESIAN_POINT('',(7.313813574054,-1.324683694425,1.267270425294
));
#211 = CARTESIAN_POINT('',(7.301641365498,-1.332290273325,1.260363823569
));
#212 = CARTESIAN_POINT('',(7.289824011061,-1.340486699067,1.253988125821
));
#213 = CARTESIAN_POINT('',(7.278401298085,-1.349250185297,1.248172965735
));
#214 = CARTESIAN_POINT('',(7.246567858832,-1.376196047456,1.23303068407)
);
#215 = CARTESIAN_POINT('',(7.227276171389,-1.3957821519,1.225227033045)
);
#216 = CARTESIAN_POINT('',(7.209804369422,-1.41711745791,1.219723384739)
);
#217 = CARTESIAN_POINT('',(7.194385327166,-1.439939880415,1.216663933307
));
#218 = CARTESIAN_POINT('',(7.181191751013,-1.463933469778,1.216120651345
));
#219 = CARTESIAN_POINT('',(7.15858797757,-1.515474723487,1.2201620335));
#220 = CARTESIAN_POINT('',(7.149545724719,-1.543164288713,1.225148181914
));
#221 = CARTESIAN_POINT('',(7.143297636609,-1.57137299922,1.232995061753)
);
#222 = CARTESIAN_POINT('',(7.139817956866,-1.599674709746,1.243546544501
));
#223 = CARTESIAN_POINT('',(7.13899158538,-1.627714372211,1.256572277478)
);
#224 = CARTESIAN_POINT('',(7.141530137775,-1.669411892823,1.279693823762
));
#225 = CARTESIAN_POINT('',(7.143062568498,-1.683472660124,1.288164080269
));
#226 = CARTESIAN_POINT('',(7.145241715005,-1.697350640937,1.297193231816
));
#227 = CARTESIAN_POINT('',(7.148044459161,-1.711012999265,1.3067457165)
);
#228 = CARTESIAN_POINT('',(7.151446878986,-1.724431561083,1.31678592315)
);
#229 = CARTESIAN_POINT('',(7.167786934367,-1.778438656032,1.359880286477
));
#230 = CARTESIAN_POINT('',(7.185704187477,-1.816685541305,1.396836812946
));
#231 = CARTESIAN_POINT('',(7.208478505505,-1.851653469945,1.437141309107
));
#232 = CARTESIAN_POINT('',(7.235474033364,-1.882918425742,1.479831302985
));
#233 = CARTESIAN_POINT('',(7.266213220945,-1.910140891514,1.52404186187)
);
#234 = CARTESIAN_POINT('',(7.331356910582,-1.953565068232,1.609655022423
));
#235 = CARTESIAN_POINT('',(7.365128907555,-1.970505157592,1.650883376829
));
#236 = CARTESIAN_POINT('',(7.401394359624,-1.983420417522,1.691939200536
));
#237 = CARTESIAN_POINT('',(7.439853133977,-1.991824073365,1.731990947024
));
#238 = CARTESIAN_POINT('',(7.479939462036,-1.995082999583,1.769815465847
));
#239 = CARTESIAN_POINT('',(7.557086474966,-1.990637798161,1.834739552246
));
#240 = CARTESIAN_POINT('',(7.593994166701,-1.98407770026,1.862543728462)
);
#241 = CARTESIAN_POINT('',(7.630589439246,-1.972746032145,1.886488191095
));
#242 = CARTESIAN_POINT('',(7.665897245505,-1.956578400298,1.905666519351
));
#243 = CARTESIAN_POINT('',(7.698876705454,-1.935882613193,1.919602546547
));
#244 = CARTESIAN_POINT('',(7.753487245384,-1.890963954238,1.935539071631
));
#245 = CARTESIAN_POINT('',(7.776107212266,-1.867908499419,1.939156371412
));
#246 = CARTESIAN_POINT('',(7.79606323282,-1.842590617717,1.939149257258)
);
#247 = CARTESIAN_POINT('',(7.813045339055,-1.815524371744,1.935766875506
));
#248 = CARTESIAN_POINT('',(7.826920645163,-1.787224290955,1.929353992358
));
#249 = CARTESIAN_POINT('',(7.845179848846,-1.737830533854,1.913903561957
));
#250 = CARTESIAN_POINT('',(7.851164943602,-1.717126396418,1.906234924092
));
#251 = CARTESIAN_POINT('',(7.855616423979,-1.696193016411,1.897372119698
));
#252 = CARTESIAN_POINT('',(7.858551099357,-1.675168996777,1.887429850964
));
#253 = CARTESIAN_POINT('',(7.86,-1.654178570831,1.876514315618));
#254 = CARTESIAN_POINT('',(7.86,-1.63333,1.864717247139));
#255 = TOROIDAL_SURFACE('',#256,3.951219512195,2.048780487805);
#256 = AXIS2_PLACEMENT_3D('',#257,#258,#259);
#257 = CARTESIAN_POINT('',(3.75,-0.867884512195,6.03));
#258 = DIRECTION('',(0.E+000,-1.,0.E+000));
#259 = DIRECTION('',(1.,0.E+000,0.E+000));
#260 = ADVANCED_FACE('',(#261),#264,.F.);
#261 = FACE_BOUND('',#262,.F.);
#262 = EDGE_LOOP('',(#263));
#263 = ORIENTED_EDGE('',*,*,#64,.T.);
#264 = PLANE('',#265);
#265 = AXIS2_PLACEMENT_3D('',#266,#267,#268);
#266 = CARTESIAN_POINT('',(3.75,1.283335,6.03));
#267 = DIRECTION('',(-0.E+000,-1.,-0.E+000));
#268 = DIRECTION('',(0.E+000,0.E+000,-1.));
#269 = ADVANCED_FACE('',(#270),#290,.T.);
#270 = FACE_BOUND('',#271,.T.);
#271 = EDGE_LOOP('',(#272,#273,#281,#288,#289));
#272 = ORIENTED_EDGE('',*,*,#113,.T.);
#273 = ORIENTED_EDGE('',*,*,#274,.T.);
#274 = EDGE_CURVE('',#75,#275,#277,.T.);
#275 = VERTEX_POINT('',#276);
#276 = CARTESIAN_POINT('',(0.36,0.E+000,-2.856));
#277 = LINE('',#278,#279);
#278 = CARTESIAN_POINT('',(0.36,0.E+000,6.03));
#279 = VECTOR('',#280,1.);
#280 = DIRECTION('',(-0.E+000,-0.E+000,-1.));
#281 = ORIENTED_EDGE('',*,*,#282,.T.);
#282 = EDGE_CURVE('',#275,#275,#283,.T.);
#283 = CIRCLE('',#284,0.36);
#284 = AXIS2_PLACEMENT_3D('',#285,#286,#287);
#285 = CARTESIAN_POINT('',(0.E+000,0.E+000,-2.856));
#286 = DIRECTION('',(0.E+000,0.E+000,1.));
#287 = DIRECTION('',(1.,0.E+000,0.E+000));
#288 = ORIENTED_EDGE('',*,*,#274,.F.);
#289 = ORIENTED_EDGE('',*,*,#74,.T.);
#290 = CYLINDRICAL_SURFACE('',#291,0.36);
#291 = AXIS2_PLACEMENT_3D('',#292,#293,#294);
#292 = CARTESIAN_POINT('',(0.E+000,0.E+000,6.03));
#293 = DIRECTION('',(0.E+000,0.E+000,1.));
#294 = DIRECTION('',(1.,0.E+000,0.E+000));
#295 = ADVANCED_FACE('',(#296),#299,.T.);
#296 = FACE_BOUND('',#297,.T.);
#297 = EDGE_LOOP('',(#298));
#298 = ORIENTED_EDGE('',*,*,#172,.T.);
#299 = PLANE('',#300);
#300 = AXIS2_PLACEMENT_3D('',#301,#302,#303);
#301 = CARTESIAN_POINT('',(3.75,-2.916665,6.03));
#302 = DIRECTION('',(-0.E+000,-1.,-0.E+000));
#303 = DIRECTION('',(0.E+000,0.E+000,-1.));
#304 = ADVANCED_FACE('',(#305),#325,.T.);
#305 = FACE_BOUND('',#306,.T.);
#306 = EDGE_LOOP('',(#307,#308,#316,#323,#324));
#307 = ORIENTED_EDGE('',*,*,#182,.F.);
#308 = ORIENTED_EDGE('',*,*,#309,.T.);
#309 = EDGE_CURVE('',#183,#310,#312,.T.);
#310 = VERTEX_POINT('',#311);
#311 = CARTESIAN_POINT('',(7.86,-1.63333,-2.856));
#312 = LINE('',#313,#314);
#313 = CARTESIAN_POINT('',(7.86,-1.63333,6.03));
#314 = VECTOR('',#315,1.);
#315 = DIRECTION('',(-0.E+000,-0.E+000,-1.));
#316 = ORIENTED_EDGE('',*,*,#317,.T.);
#317 = EDGE_CURVE('',#310,#310,#318,.T.);
#318 = CIRCLE('',#319,0.36);
#319 = AXIS2_PLACEMENT_3D('',#320,#321,#322);
#320 = CARTESIAN_POINT('',(7.5,-1.63333,-2.856));
#321 = DIRECTION('',(4.311546871385E-030,-0.E+000,1.));
#322 = DIRECTION('',(1.,0.E+000,-4.311546871385E-030));
#323 = ORIENTED_EDGE('',*,*,#309,.F.);
#324 = ORIENTED_EDGE('',*,*,#201,.F.);
#325 = CYLINDRICAL_SURFACE('',#326,0.36);
#326 = AXIS2_PLACEMENT_3D('',#327,#328,#329);
#327 = CARTESIAN_POINT('',(7.5,-1.63333,6.03));
#328 = DIRECTION('',(0.E+000,0.E+000,1.));
#329 = DIRECTION('',(1.,0.E+000,0.E+000));
#330 = ADVANCED_FACE('',(#331),#351,.T.);
#331 = FACE_BOUND('',#332,.F.);
#332 = EDGE_LOOP('',(#333,#342,#343,#344));
#333 = ORIENTED_EDGE('',*,*,#334,.F.);
#334 = EDGE_CURVE('',#275,#335,#337,.T.);
#335 = VERTEX_POINT('',#336);
#336 = CARTESIAN_POINT('',(0.216,0.E+000,-3.));
#337 = CIRCLE('',#338,0.144);
#338 = AXIS2_PLACEMENT_3D('',#339,#340,#341);
#339 = CARTESIAN_POINT('',(0.216,0.E+000,-2.856));
#340 = DIRECTION('',(-0.E+000,1.,0.E+000));
#341 = DIRECTION('',(1.,0.E+000,0.E+000));
#342 = ORIENTED_EDGE('',*,*,#282,.T.);
#343 = ORIENTED_EDGE('',*,*,#334,.T.);
#344 = ORIENTED_EDGE('',*,*,#345,.F.);
#345 = EDGE_CURVE('',#335,#335,#346,.T.);
#346 = CIRCLE('',#347,0.216);
#347 = AXIS2_PLACEMENT_3D('',#348,#349,#350);
#348 = CARTESIAN_POINT('',(0.E+000,0.E+000,-3.));
#349 = DIRECTION('',(0.E+000,0.E+000,1.));
#350 = DIRECTION('',(1.,0.E+000,0.E+000));
#351 = TOROIDAL_SURFACE('',#352,0.216,0.144);
#352 = AXIS2_PLACEMENT_3D('',#353,#354,#355);
#353 = CARTESIAN_POINT('',(0.E+000,0.E+000,-2.856));
#354 = DIRECTION('',(-0.E+000,-0.E+000,-1.));
#355 = DIRECTION('',(1.,0.E+000,0.E+000));
#356 = ADVANCED_FACE('',(#357),#377,.T.);
#357 = FACE_BOUND('',#358,.F.);
#358 = EDGE_LOOP('',(#359,#368,#369,#370));
#359 = ORIENTED_EDGE('',*,*,#360,.F.);
#360 = EDGE_CURVE('',#310,#361,#363,.T.);
#361 = VERTEX_POINT('',#362);
#362 = CARTESIAN_POINT('',(7.716,-1.63333,-3.));
#363 = CIRCLE('',#364,0.144);
#364 = AXIS2_PLACEMENT_3D('',#365,#366,#367);
#365 = CARTESIAN_POINT('',(7.716,-1.63333,-2.856));
#366 = DIRECTION('',(0.E+000,1.,0.E+000));
#367 = DIRECTION('',(1.,0.E+000,-4.311546871385E-030));
#368 = ORIENTED_EDGE('',*,*,#317,.T.);
#369 = ORIENTED_EDGE('',*,*,#360,.T.);
#370 = ORIENTED_EDGE('',*,*,#371,.F.);
#371 = EDGE_CURVE('',#361,#361,#372,.T.);
#372 = CIRCLE('',#373,0.216);
#373 = AXIS2_PLACEMENT_3D('',#374,#375,#376);
#374 = CARTESIAN_POINT('',(7.5,-1.63333,-3.));
#375 = DIRECTION('',(4.311546871385E-030,-0.E+000,1.));
#376 = DIRECTION('',(1.,0.E+000,-4.311546871385E-030));
#377 = TOROIDAL_SURFACE('',#378,0.216,0.144);
#378 = AXIS2_PLACEMENT_3D('',#379,#380,#381);
#379 = CARTESIAN_POINT('',(7.5,-1.63333,-2.856));
#380 = DIRECTION('',(-4.311546871385E-030,-0.E+000,-1.));
#381 = DIRECTION('',(1.,0.E+000,-4.311546871385E-030));
#382 = ADVANCED_FACE('',(#383),#386,.F.);
#383 = FACE_BOUND('',#384,.F.);
#384 = EDGE_LOOP('',(#385));
#385 = ORIENTED_EDGE('',*,*,#345,.T.);
#386 = PLANE('',#387);
#387 = AXIS2_PLACEMENT_3D('',#388,#389,#390);
#388 = CARTESIAN_POINT('',(-1.483767504926E-017,1.497958850874E-017,-3.)
);
#389 = DIRECTION('',(0.E+000,0.E+000,1.));
#390 = DIRECTION('',(1.,0.E+000,0.E+000));
#391 = ADVANCED_FACE('',(#392),#395,.F.);
#392 = FACE_BOUND('',#393,.F.);
#393 = EDGE_LOOP('',(#394));
#394 = ORIENTED_EDGE('',*,*,#371,.T.);
#395 = PLANE('',#396);
#396 = AXIS2_PLACEMENT_3D('',#397,#398,#399);
#397 = CARTESIAN_POINT('',(7.5,-1.63333,-3.));
#398 = DIRECTION('',(4.311546871385E-030,0.E+000,1.));
#399 = DIRECTION('',(1.,0.E+000,-4.311546871385E-030));
#400 = ( GEOMETRIC_REPRESENTATION_CONTEXT(3)
GLOBAL_UNCERTAINTY_ASSIGNED_CONTEXT((#404)) GLOBAL_UNIT_ASSIGNED_CONTEXT
((#401,#402,#403)) REPRESENTATION_CONTEXT('Context #1',
'3D Context with UNIT and UNCERTAINTY') );
#401 = ( LENGTH_UNIT() NAMED_UNIT(*) SI_UNIT(.MILLI.,.METRE.) );
#402 = ( NAMED_UNIT(*) PLANE_ANGLE_UNIT() SI_UNIT($,.RADIAN.) );
#403 = ( NAMED_UNIT(*) SI_UNIT($,.STERADIAN.) SOLID_ANGLE_UNIT() );
#404 = UNCERTAINTY_MEASURE_WITH_UNIT(LENGTH_MEASURE(1.E-007),#401,
'distance_accuracy_value','confusion accuracy');
#405 = PRODUCT_RELATED_PRODUCT_CATEGORY('part',$,(#7));
#406 = MECHANICAL_DESIGN_GEOMETRIC_PRESENTATION_REPRESENTATION('',(#407,
#415,#422,#429,#436,#444,#451,#458,#465,#472,#479),#400);
#407 = STYLED_ITEM('color',(#408),#17);
#408 = PRESENTATION_STYLE_ASSIGNMENT((#409));
#409 = SURFACE_STYLE_USAGE(.BOTH.,#410);
#410 = SURFACE_SIDE_STYLE('',(#411));
#411 = SURFACE_STYLE_FILL_AREA(#412);
#412 = FILL_AREA_STYLE('',(#413));
#413 = FILL_AREA_STYLE_COLOUR('',#414);
#414 = COLOUR_RGB('',0.136999994516,0.402000010014,0.726999998093);
#415 = STYLED_ITEM('color',(#416),#50);
#416 = PRESENTATION_STYLE_ASSIGNMENT((#417));
#417 = SURFACE_STYLE_USAGE(.BOTH.,#418);
#418 = SURFACE_SIDE_STYLE('',(#419));
#419 = SURFACE_STYLE_FILL_AREA(#420);
#420 = FILL_AREA_STYLE('',(#421));
#421 = FILL_AREA_STYLE_COLOUR('',#414);
#422 = STYLED_ITEM('color',(#423),#158);
#423 = PRESENTATION_STYLE_ASSIGNMENT((#424));
#424 = SURFACE_STYLE_USAGE(.BOTH.,#425);
#425 = SURFACE_SIDE_STYLE('',(#426));
#426 = SURFACE_STYLE_FILL_AREA(#427);
#427 = FILL_AREA_STYLE('',(#428));
#428 = FILL_AREA_STYLE_COLOUR('',#414);
#429 = STYLED_ITEM('color',(#430),#260);
#430 = PRESENTATION_STYLE_ASSIGNMENT((#431));
#431 = SURFACE_STYLE_USAGE(.BOTH.,#432);
#432 = SURFACE_SIDE_STYLE('',(#433));
#433 = SURFACE_STYLE_FILL_AREA(#434);
#434 = FILL_AREA_STYLE('',(#435));
#435 = FILL_AREA_STYLE_COLOUR('',#414);
#436 = STYLED_ITEM('color',(#437),#269);
#437 = PRESENTATION_STYLE_ASSIGNMENT((#438));
#438 = SURFACE_STYLE_USAGE(.BOTH.,#439);
#439 = SURFACE_SIDE_STYLE('',(#440));
#440 = SURFACE_STYLE_FILL_AREA(#441);
#441 = FILL_AREA_STYLE('',(#442));
#442 = FILL_AREA_STYLE_COLOUR('',#443);
#443 = COLOUR_RGB('',0.824000000954,0.819999992847,0.78100001812);
#444 = STYLED_ITEM('color',(#445),#295);
#445 = PRESENTATION_STYLE_ASSIGNMENT((#446));
#446 = SURFACE_STYLE_USAGE(.BOTH.,#447);
#447 = SURFACE_SIDE_STYLE('',(#448));
#448 = SURFACE_STYLE_FILL_AREA(#449);
#449 = FILL_AREA_STYLE('',(#450));
#450 = FILL_AREA_STYLE_COLOUR('',#414);
#451 = STYLED_ITEM('color',(#452),#304);
#452 = PRESENTATION_STYLE_ASSIGNMENT((#453));
#453 = SURFACE_STYLE_USAGE(.BOTH.,#454);
#454 = SURFACE_SIDE_STYLE('',(#455));
#455 = SURFACE_STYLE_FILL_AREA(#456);
#456 = FILL_AREA_STYLE('',(#457));
#457 = FILL_AREA_STYLE_COLOUR('',#443);
#458 = STYLED_ITEM('color',(#459),#330);
#459 = PRESENTATION_STYLE_ASSIGNMENT((#460));
#460 = SURFACE_STYLE_USAGE(.BOTH.,#461);
#461 = SURFACE_SIDE_STYLE('',(#462));
#462 = SURFACE_STYLE_FILL_AREA(#463);
#463 = FILL_AREA_STYLE('',(#464));
#464 = FILL_AREA_STYLE_COLOUR('',#443);
#465 = STYLED_ITEM('color',(#466),#356);
#466 = PRESENTATION_STYLE_ASSIGNMENT((#467));
#467 = SURFACE_STYLE_USAGE(.BOTH.,#468);
#468 = SURFACE_SIDE_STYLE('',(#469));
#469 = SURFACE_STYLE_FILL_AREA(#470);
#470 = FILL_AREA_STYLE('',(#471));
#471 = FILL_AREA_STYLE_COLOUR('',#443);
#472 = STYLED_ITEM('color',(#473),#382);
#473 = PRESENTATION_STYLE_ASSIGNMENT((#474));
#474 = SURFACE_STYLE_USAGE(.BOTH.,#475);
#475 = SURFACE_SIDE_STYLE('',(#476));
#476 = SURFACE_STYLE_FILL_AREA(#477);
#477 = FILL_AREA_STYLE('',(#478));
#478 = FILL_AREA_STYLE_COLOUR('',#443);
#479 = STYLED_ITEM('color',(#480),#391);
#480 = PRESENTATION_STYLE_ASSIGNMENT((#481));
#481 = SURFACE_STYLE_USAGE(.BOTH.,#482);
#482 = SURFACE_SIDE_STYLE('',(#483));
#483 = SURFACE_STYLE_FILL_AREA(#484);
#484 = FILL_AREA_STYLE('',(#485));
#485 = FILL_AREA_STYLE_COLOUR('',#443);
ENDSEC;
END-ISO-10303-21;
