ISO-10303-21;
HEADER;
FILE_DESCRIPTION(('FreeCAD Model'),'2;1');
FILE_NAME(
'D:/KiCAD/packages3D-source/Package_TO_SOT_THT.3dshapes\\
TO-92Mini-2.step','2017-11-28T22:21:40',('kicad StepUp'),('ksu MCAD'),
  'Open CASCADE STEP processor 6.8','FreeCAD','Unknown');
FILE_SCHEMA(('AUTOMOTIVE_DESIGN_CC2 { 1 2 10303 214 -1 1 5 4 }'));
ENDSEC;
DATA;
#1 = APPLICATION_PROTOCOL_DEFINITION('committee draft',
  'automotive_design',1997,#2);
#2 = APPLICATION_CONTEXT(
  'core data for automotive mechanical design processes');
#3 = SHAPE_DEFINITION_REPRESENTATION(#4,#10);
#4 = PRODUCT_DEFINITION_SHAPE('','',#5);
#5 = PRODUCT_DEFINITION('design','',#6,#9);
#6 = PRODUCT_DEFINITION_FORMATION('','',#7);
#7 = PRODUCT('TO-92Mini-2','TO-92Mini-2','',(#8));
#8 = MECHANICAL_CONTEXT('',#2,'mechanical');
#9 = PRODUCT_DEFINITION_CONTEXT('part definition',#2,'design');
#10 = ADVANCED_BREP_SHAPE_REPRESENTATION('',(#11,#15),#385);
#11 = AXIS2_PLACEMENT_3D('',#12,#13,#14);
#12 = CARTESIAN_POINT('',(0.E+000,0.E+000,0.E+000));
#13 = DIRECTION('',(0.E+000,0.E+000,1.));
#14 = DIRECTION('',(1.,0.E+000,-0.E+000));
#15 = MANIFOLD_SOLID_BREP('',#16);
#16 = CLOSED_SHELL('',(#17,#57,#81,#159,#169,#200,#224,#248,#265,#296,
    #320,#344,#361,#373));
#17 = ADVANCED_FACE('',(#18),#52,.F.);
#18 = FACE_BOUND('',#19,.F.);
#19 = EDGE_LOOP('',(#20,#30,#38,#46));
#20 = ORIENTED_EDGE('',*,*,#21,.T.);
#21 = EDGE_CURVE('',#22,#24,#26,.T.);
#22 = VERTEX_POINT('',#23);
#23 = CARTESIAN_POINT('',(-0.374621125124,-0.65,2.5));
#24 = VERTEX_POINT('',#25);
#25 = CARTESIAN_POINT('',(-0.374621125124,-0.65,4.4));
#26 = LINE('',#27,#28);
#27 = CARTESIAN_POINT('',(-0.374621125124,-0.65,2.5));
#28 = VECTOR('',#29,1.);
#29 = DIRECTION('',(0.E+000,0.E+000,1.));
#30 = ORIENTED_EDGE('',*,*,#31,.T.);
#31 = EDGE_CURVE('',#24,#32,#34,.T.);
#32 = VERTEX_POINT('',#33);
#33 = CARTESIAN_POINT('',(1.274621125124,-0.65,4.4));
#34 = LINE('',#35,#36);
#35 = CARTESIAN_POINT('',(-0.374621125124,-0.65,4.4));
#36 = VECTOR('',#37,1.);
#37 = DIRECTION('',(1.,0.E+000,0.E+000));
#38 = ORIENTED_EDGE('',*,*,#39,.F.);
#39 = EDGE_CURVE('',#40,#32,#42,.T.);
#40 = VERTEX_POINT('',#41);
#41 = CARTESIAN_POINT('',(1.274621125124,-0.65,2.5));
#42 = LINE('',#43,#44);
#43 = CARTESIAN_POINT('',(1.274621125124,-0.65,2.5));
#44 = VECTOR('',#45,1.);
#45 = DIRECTION('',(0.E+000,0.E+000,1.));
#46 = ORIENTED_EDGE('',*,*,#47,.F.);
#47 = EDGE_CURVE('',#22,#40,#48,.T.);
#48 = LINE('',#49,#50);
#49 = CARTESIAN_POINT('',(-0.374621125124,-0.65,2.5));
#50 = VECTOR('',#51,1.);
#51 = DIRECTION('',(1.,0.E+000,0.E+000));
#52 = PLANE('',#53);
#53 = AXIS2_PLACEMENT_3D('',#54,#55,#56);
#54 = CARTESIAN_POINT('',(-0.374621125124,-0.65,2.5));
#55 = DIRECTION('',(0.E+000,1.,0.E+000));
#56 = DIRECTION('',(1.,0.E+000,0.E+000));
#57 = ADVANCED_FACE('',(#58),#76,.T.);
#58 = FACE_BOUND('',#59,.F.);
#59 = EDGE_LOOP('',(#60,#61,#68,#69));
#60 = ORIENTED_EDGE('',*,*,#39,.T.);
#61 = ORIENTED_EDGE('',*,*,#62,.T.);
#62 = EDGE_CURVE('',#32,#24,#63,.T.);
#63 = CIRCLE('',#64,1.05);
#64 = AXIS2_PLACEMENT_3D('',#65,#66,#67);
#65 = CARTESIAN_POINT('',(0.45,0.E+000,4.4));
#66 = DIRECTION('',(0.E+000,0.E+000,1.));
#67 = DIRECTION('',(1.,0.E+000,0.E+000));
#68 = ORIENTED_EDGE('',*,*,#21,.F.);
#69 = ORIENTED_EDGE('',*,*,#70,.F.);
#70 = EDGE_CURVE('',#40,#22,#71,.T.);
#71 = CIRCLE('',#72,1.05);
#72 = AXIS2_PLACEMENT_3D('',#73,#74,#75);
#73 = CARTESIAN_POINT('',(0.45,0.E+000,2.5));
#74 = DIRECTION('',(0.E+000,0.E+000,1.));
#75 = DIRECTION('',(1.,0.E+000,0.E+000));
#76 = CYLINDRICAL_SURFACE('',#77,1.05);
#77 = AXIS2_PLACEMENT_3D('',#78,#79,#80);
#78 = CARTESIAN_POINT('',(0.45,0.E+000,2.5));
#79 = DIRECTION('',(-0.E+000,-0.E+000,-1.));
#80 = DIRECTION('',(1.,0.E+000,0.E+000));
#81 = ADVANCED_FACE('',(#82,#86,#120),#154,.T.);
#82 = FACE_BOUND('',#83,.T.);
#83 = EDGE_LOOP('',(#84,#85));
#84 = ORIENTED_EDGE('',*,*,#47,.F.);
#85 = ORIENTED_EDGE('',*,*,#70,.F.);
#86 = FACE_BOUND('',#87,.T.);
#87 = EDGE_LOOP('',(#88,#98,#106,#114));
#88 = ORIENTED_EDGE('',*,*,#89,.F.);
#89 = EDGE_CURVE('',#90,#92,#94,.T.);
#90 = VERTEX_POINT('',#91);
#91 = CARTESIAN_POINT('',(0.7,-0.1,2.5));
#92 = VERTEX_POINT('',#93);
#93 = CARTESIAN_POINT('',(0.7,0.1,2.5));
#94 = LINE('',#95,#96);
#95 = CARTESIAN_POINT('',(0.7,-0.1,2.5));
#96 = VECTOR('',#97,1.);
#97 = DIRECTION('',(0.E+000,1.,0.E+000));
#98 = ORIENTED_EDGE('',*,*,#99,.F.);
#99 = EDGE_CURVE('',#100,#90,#102,.T.);
#100 = VERTEX_POINT('',#101);
#101 = CARTESIAN_POINT('',(1.1,-0.1,2.5));
#102 = LINE('',#103,#104);
#103 = CARTESIAN_POINT('',(1.1,-0.1,2.5));
#104 = VECTOR('',#105,1.);
#105 = DIRECTION('',(-1.,0.E+000,0.E+000));
#106 = ORIENTED_EDGE('',*,*,#107,.F.);
#107 = EDGE_CURVE('',#108,#100,#110,.T.);
#108 = VERTEX_POINT('',#109);
#109 = CARTESIAN_POINT('',(1.1,0.1,2.5));
#110 = LINE('',#111,#112);
#111 = CARTESIAN_POINT('',(1.1,0.1,2.5));
#112 = VECTOR('',#113,1.);
#113 = DIRECTION('',(0.E+000,-1.,0.E+000));
#114 = ORIENTED_EDGE('',*,*,#115,.F.);
#115 = EDGE_CURVE('',#92,#108,#116,.T.);
#116 = LINE('',#117,#118);
#117 = CARTESIAN_POINT('',(0.7,0.1,2.5));
#118 = VECTOR('',#119,1.);
#119 = DIRECTION('',(1.,0.E+000,0.E+000));
#120 = FACE_BOUND('',#121,.T.);
#121 = EDGE_LOOP('',(#122,#132,#140,#148));
#122 = ORIENTED_EDGE('',*,*,#123,.F.);
#123 = EDGE_CURVE('',#124,#126,#128,.T.);
#124 = VERTEX_POINT('',#125);
#125 = CARTESIAN_POINT('',(-0.2,-0.1,2.5));
#126 = VERTEX_POINT('',#127);
#127 = CARTESIAN_POINT('',(-0.2,0.1,2.5));
#128 = LINE('',#129,#130);
#129 = CARTESIAN_POINT('',(-0.2,-0.1,2.5));
#130 = VECTOR('',#131,1.);
#131 = DIRECTION('',(0.E+000,1.,0.E+000));
#132 = ORIENTED_EDGE('',*,*,#133,.F.);
#133 = EDGE_CURVE('',#134,#124,#136,.T.);
#134 = VERTEX_POINT('',#135);
#135 = CARTESIAN_POINT('',(0.2,-0.1,2.5));
#136 = LINE('',#137,#138);
#137 = CARTESIAN_POINT('',(0.2,-0.1,2.5));
#138 = VECTOR('',#139,1.);
#139 = DIRECTION('',(-1.,0.E+000,0.E+000));
#140 = ORIENTED_EDGE('',*,*,#141,.F.);
#141 = EDGE_CURVE('',#142,#134,#144,.T.);
#142 = VERTEX_POINT('',#143);
#143 = CARTESIAN_POINT('',(0.2,0.1,2.5));
#144 = LINE('',#145,#146);
#145 = CARTESIAN_POINT('',(0.2,0.1,2.5));
#146 = VECTOR('',#147,1.);
#147 = DIRECTION('',(0.E+000,-1.,0.E+000));
#148 = ORIENTED_EDGE('',*,*,#149,.F.);
#149 = EDGE_CURVE('',#126,#142,#150,.T.);
#150 = LINE('',#151,#152);
#151 = CARTESIAN_POINT('',(-0.2,0.1,2.5));
#152 = VECTOR('',#153,1.);
#153 = DIRECTION('',(1.,0.E+000,0.E+000));
#154 = PLANE('',#155);
#155 = AXIS2_PLACEMENT_3D('',#156,#157,#158);
#156 = CARTESIAN_POINT('',(-0.374621125124,-0.65,2.5));
#157 = DIRECTION('',(0.E+000,0.E+000,-1.));
#158 = DIRECTION('',(-1.,0.E+000,0.E+000));
#159 = ADVANCED_FACE('',(#160),#164,.F.);
#160 = FACE_BOUND('',#161,.T.);
#161 = EDGE_LOOP('',(#162,#163));
#162 = ORIENTED_EDGE('',*,*,#31,.T.);
#163 = ORIENTED_EDGE('',*,*,#62,.T.);
#164 = PLANE('',#165);
#165 = AXIS2_PLACEMENT_3D('',#166,#167,#168);
#166 = CARTESIAN_POINT('',(-0.374621125124,-0.65,4.4));
#167 = DIRECTION('',(0.E+000,0.E+000,-1.));
#168 = DIRECTION('',(-1.,0.E+000,0.E+000));
#169 = ADVANCED_FACE('',(#170),#195,.F.);
#170 = FACE_BOUND('',#171,.F.);
#171 = EDGE_LOOP('',(#172,#180,#188,#194));
#172 = ORIENTED_EDGE('',*,*,#173,.T.);
#173 = EDGE_CURVE('',#90,#174,#176,.T.);
#174 = VERTEX_POINT('',#175);
#175 = CARTESIAN_POINT('',(0.7,-0.1,-2.5));
#176 = LINE('',#177,#178);
#177 = CARTESIAN_POINT('',(0.7,-0.1,2.5));
#178 = VECTOR('',#179,1.);
#179 = DIRECTION('',(-0.E+000,-0.E+000,-1.));
#180 = ORIENTED_EDGE('',*,*,#181,.T.);
#181 = EDGE_CURVE('',#174,#182,#184,.T.);
#182 = VERTEX_POINT('',#183);
#183 = CARTESIAN_POINT('',(0.7,0.1,-2.5));
#184 = LINE('',#185,#186);
#185 = CARTESIAN_POINT('',(0.7,-0.1,-2.5));
#186 = VECTOR('',#187,1.);
#187 = DIRECTION('',(0.E+000,1.,0.E+000));
#188 = ORIENTED_EDGE('',*,*,#189,.F.);
#189 = EDGE_CURVE('',#92,#182,#190,.T.);
#190 = LINE('',#191,#192);
#191 = CARTESIAN_POINT('',(0.7,0.1,2.5));
#192 = VECTOR('',#193,1.);
#193 = DIRECTION('',(-0.E+000,-0.E+000,-1.));
#194 = ORIENTED_EDGE('',*,*,#89,.F.);
#195 = PLANE('',#196);
#196 = AXIS2_PLACEMENT_3D('',#197,#198,#199);
#197 = CARTESIAN_POINT('',(0.7,-0.1,2.5));
#198 = DIRECTION('',(1.,0.E+000,0.E+000));
#199 = DIRECTION('',(0.E+000,1.,0.E+000));
#200 = ADVANCED_FACE('',(#201),#219,.F.);
#201 = FACE_BOUND('',#202,.F.);
#202 = EDGE_LOOP('',(#203,#204,#212,#218));
#203 = ORIENTED_EDGE('',*,*,#189,.T.);
#204 = ORIENTED_EDGE('',*,*,#205,.T.);
#205 = EDGE_CURVE('',#182,#206,#208,.T.);
#206 = VERTEX_POINT('',#207);
#207 = CARTESIAN_POINT('',(1.1,0.1,-2.5));
#208 = LINE('',#209,#210);
#209 = CARTESIAN_POINT('',(0.7,0.1,-2.5));
#210 = VECTOR('',#211,1.);
#211 = DIRECTION('',(1.,0.E+000,0.E+000));
#212 = ORIENTED_EDGE('',*,*,#213,.F.);
#213 = EDGE_CURVE('',#108,#206,#214,.T.);
#214 = LINE('',#215,#216);
#215 = CARTESIAN_POINT('',(1.1,0.1,2.5));
#216 = VECTOR('',#217,1.);
#217 = DIRECTION('',(-0.E+000,-0.E+000,-1.));
#218 = ORIENTED_EDGE('',*,*,#115,.F.);
#219 = PLANE('',#220);
#220 = AXIS2_PLACEMENT_3D('',#221,#222,#223);
#221 = CARTESIAN_POINT('',(0.7,0.1,2.5));
#222 = DIRECTION('',(0.E+000,-1.,0.E+000));
#223 = DIRECTION('',(1.,0.E+000,0.E+000));
#224 = ADVANCED_FACE('',(#225),#243,.F.);
#225 = FACE_BOUND('',#226,.F.);
#226 = EDGE_LOOP('',(#227,#228,#236,#242));
#227 = ORIENTED_EDGE('',*,*,#213,.T.);
#228 = ORIENTED_EDGE('',*,*,#229,.T.);
#229 = EDGE_CURVE('',#206,#230,#232,.T.);
#230 = VERTEX_POINT('',#231);
#231 = CARTESIAN_POINT('',(1.1,-0.1,-2.5));
#232 = LINE('',#233,#234);
#233 = CARTESIAN_POINT('',(1.1,0.1,-2.5));
#234 = VECTOR('',#235,1.);
#235 = DIRECTION('',(0.E+000,-1.,0.E+000));
#236 = ORIENTED_EDGE('',*,*,#237,.F.);
#237 = EDGE_CURVE('',#100,#230,#238,.T.);
#238 = LINE('',#239,#240);
#239 = CARTESIAN_POINT('',(1.1,-0.1,2.5));
#240 = VECTOR('',#241,1.);
#241 = DIRECTION('',(-0.E+000,-0.E+000,-1.));
#242 = ORIENTED_EDGE('',*,*,#107,.F.);
#243 = PLANE('',#244);
#244 = AXIS2_PLACEMENT_3D('',#245,#246,#247);
#245 = CARTESIAN_POINT('',(1.1,0.1,2.5));
#246 = DIRECTION('',(-1.,0.E+000,0.E+000));
#247 = DIRECTION('',(0.E+000,-1.,0.E+000));
#248 = ADVANCED_FACE('',(#249),#260,.F.);
#249 = FACE_BOUND('',#250,.F.);
#250 = EDGE_LOOP('',(#251,#252,#258,#259));
#251 = ORIENTED_EDGE('',*,*,#237,.T.);
#252 = ORIENTED_EDGE('',*,*,#253,.T.);
#253 = EDGE_CURVE('',#230,#174,#254,.T.);
#254 = LINE('',#255,#256);
#255 = CARTESIAN_POINT('',(1.1,-0.1,-2.5));
#256 = VECTOR('',#257,1.);
#257 = DIRECTION('',(-1.,0.E+000,0.E+000));
#258 = ORIENTED_EDGE('',*,*,#173,.F.);
#259 = ORIENTED_EDGE('',*,*,#99,.F.);
#260 = PLANE('',#261);
#261 = AXIS2_PLACEMENT_3D('',#262,#263,#264);
#262 = CARTESIAN_POINT('',(1.1,-0.1,2.5));
#263 = DIRECTION('',(0.E+000,1.,0.E+000));
#264 = DIRECTION('',(-1.,0.E+000,0.E+000));
#265 = ADVANCED_FACE('',(#266),#291,.F.);
#266 = FACE_BOUND('',#267,.F.);
#267 = EDGE_LOOP('',(#268,#276,#284,#290));
#268 = ORIENTED_EDGE('',*,*,#269,.T.);
#269 = EDGE_CURVE('',#124,#270,#272,.T.);
#270 = VERTEX_POINT('',#271);
#271 = CARTESIAN_POINT('',(-0.2,-0.1,-2.5));
#272 = LINE('',#273,#274);
#273 = CARTESIAN_POINT('',(-0.2,-0.1,2.5));
#274 = VECTOR('',#275,1.);
#275 = DIRECTION('',(-0.E+000,-0.E+000,-1.));
#276 = ORIENTED_EDGE('',*,*,#277,.T.);
#277 = EDGE_CURVE('',#270,#278,#280,.T.);
#278 = VERTEX_POINT('',#279);
#279 = CARTESIAN_POINT('',(-0.2,0.1,-2.5));
#280 = LINE('',#281,#282);
#281 = CARTESIAN_POINT('',(-0.2,-0.1,-2.5));
#282 = VECTOR('',#283,1.);
#283 = DIRECTION('',(0.E+000,1.,0.E+000));
#284 = ORIENTED_EDGE('',*,*,#285,.F.);
#285 = EDGE_CURVE('',#126,#278,#286,.T.);
#286 = LINE('',#287,#288);
#287 = CARTESIAN_POINT('',(-0.2,0.1,2.5));
#288 = VECTOR('',#289,1.);
#289 = DIRECTION('',(-0.E+000,-0.E+000,-1.));
#290 = ORIENTED_EDGE('',*,*,#123,.F.);
#291 = PLANE('',#292);
#292 = AXIS2_PLACEMENT_3D('',#293,#294,#295);
#293 = CARTESIAN_POINT('',(-0.2,-0.1,2.5));
#294 = DIRECTION('',(1.,0.E+000,0.E+000));
#295 = DIRECTION('',(0.E+000,1.,0.E+000));
#296 = ADVANCED_FACE('',(#297),#315,.F.);
#297 = FACE_BOUND('',#298,.F.);
#298 = EDGE_LOOP('',(#299,#300,#308,#314));
#299 = ORIENTED_EDGE('',*,*,#285,.T.);
#300 = ORIENTED_EDGE('',*,*,#301,.T.);
#301 = EDGE_CURVE('',#278,#302,#304,.T.);
#302 = VERTEX_POINT('',#303);
#303 = CARTESIAN_POINT('',(0.2,0.1,-2.5));
#304 = LINE('',#305,#306);
#305 = CARTESIAN_POINT('',(-0.2,0.1,-2.5));
#306 = VECTOR('',#307,1.);
#307 = DIRECTION('',(1.,0.E+000,0.E+000));
#308 = ORIENTED_EDGE('',*,*,#309,.F.);
#309 = EDGE_CURVE('',#142,#302,#310,.T.);
#310 = LINE('',#311,#312);
#311 = CARTESIAN_POINT('',(0.2,0.1,2.5));
#312 = VECTOR('',#313,1.);
#313 = DIRECTION('',(-0.E+000,-0.E+000,-1.));
#314 = ORIENTED_EDGE('',*,*,#149,.F.);
#315 = PLANE('',#316);
#316 = AXIS2_PLACEMENT_3D('',#317,#318,#319);
#317 = CARTESIAN_POINT('',(-0.2,0.1,2.5));
#318 = DIRECTION('',(0.E+000,-1.,0.E+000));
#319 = DIRECTION('',(1.,0.E+000,0.E+000));
#320 = ADVANCED_FACE('',(#321),#339,.F.);
#321 = FACE_BOUND('',#322,.F.);
#322 = EDGE_LOOP('',(#323,#324,#332,#338));
#323 = ORIENTED_EDGE('',*,*,#309,.T.);
#324 = ORIENTED_EDGE('',*,*,#325,.T.);
#325 = EDGE_CURVE('',#302,#326,#328,.T.);
#326 = VERTEX_POINT('',#327);
#327 = CARTESIAN_POINT('',(0.2,-0.1,-2.5));
#328 = LINE('',#329,#330);
#329 = CARTESIAN_POINT('',(0.2,0.1,-2.5));
#330 = VECTOR('',#331,1.);
#331 = DIRECTION('',(0.E+000,-1.,0.E+000));
#332 = ORIENTED_EDGE('',*,*,#333,.F.);
#333 = EDGE_CURVE('',#134,#326,#334,.T.);
#334 = LINE('',#335,#336);
#335 = CARTESIAN_POINT('',(0.2,-0.1,2.5));
#336 = VECTOR('',#337,1.);
#337 = DIRECTION('',(-0.E+000,-0.E+000,-1.));
#338 = ORIENTED_EDGE('',*,*,#141,.F.);
#339 = PLANE('',#340);
#340 = AXIS2_PLACEMENT_3D('',#341,#342,#343);
#341 = CARTESIAN_POINT('',(0.2,0.1,2.5));
#342 = DIRECTION('',(-1.,0.E+000,0.E+000));
#343 = DIRECTION('',(0.E+000,-1.,0.E+000));
#344 = ADVANCED_FACE('',(#345),#356,.F.);
#345 = FACE_BOUND('',#346,.F.);
#346 = EDGE_LOOP('',(#347,#348,#354,#355));
#347 = ORIENTED_EDGE('',*,*,#333,.T.);
#348 = ORIENTED_EDGE('',*,*,#349,.T.);
#349 = EDGE_CURVE('',#326,#270,#350,.T.);
#350 = LINE('',#351,#352);
#351 = CARTESIAN_POINT('',(0.2,-0.1,-2.5));
#352 = VECTOR('',#353,1.);
#353 = DIRECTION('',(-1.,0.E+000,0.E+000));
#354 = ORIENTED_EDGE('',*,*,#269,.F.);
#355 = ORIENTED_EDGE('',*,*,#133,.F.);
#356 = PLANE('',#357);
#357 = AXIS2_PLACEMENT_3D('',#358,#359,#360);
#358 = CARTESIAN_POINT('',(0.2,-0.1,2.5));
#359 = DIRECTION('',(0.E+000,1.,0.E+000));
#360 = DIRECTION('',(-1.,0.E+000,0.E+000));
#361 = ADVANCED_FACE('',(#362),#368,.F.);
#362 = FACE_BOUND('',#363,.T.);
#363 = EDGE_LOOP('',(#364,#365,#366,#367));
#364 = ORIENTED_EDGE('',*,*,#205,.T.);
#365 = ORIENTED_EDGE('',*,*,#229,.T.);
#366 = ORIENTED_EDGE('',*,*,#253,.T.);
#367 = ORIENTED_EDGE('',*,*,#181,.T.);
#368 = PLANE('',#369);
#369 = AXIS2_PLACEMENT_3D('',#370,#371,#372);
#370 = CARTESIAN_POINT('',(0.7,0.1,-2.5));
#371 = DIRECTION('',(0.E+000,0.E+000,1.));
#372 = DIRECTION('',(1.,0.E+000,0.E+000));
#373 = ADVANCED_FACE('',(#374),#380,.F.);
#374 = FACE_BOUND('',#375,.T.);
#375 = EDGE_LOOP('',(#376,#377,#378,#379));
#376 = ORIENTED_EDGE('',*,*,#301,.T.);
#377 = ORIENTED_EDGE('',*,*,#325,.T.);
#378 = ORIENTED_EDGE('',*,*,#349,.T.);
#379 = ORIENTED_EDGE('',*,*,#277,.T.);
#380 = PLANE('',#381);
#381 = AXIS2_PLACEMENT_3D('',#382,#383,#384);
#382 = CARTESIAN_POINT('',(-0.2,0.1,-2.5));
#383 = DIRECTION('',(0.E+000,0.E+000,1.));
#384 = DIRECTION('',(1.,0.E+000,0.E+000));
#385 = ( GEOMETRIC_REPRESENTATION_CONTEXT(3) 
GLOBAL_UNCERTAINTY_ASSIGNED_CONTEXT((#389)) GLOBAL_UNIT_ASSIGNED_CONTEXT
((#386,#387,#388)) REPRESENTATION_CONTEXT('Context #1',
  '3D Context with UNIT and UNCERTAINTY') );
#386 = ( LENGTH_UNIT() NAMED_UNIT(*) SI_UNIT(.MILLI.,.METRE.) );
#387 = ( NAMED_UNIT(*) PLANE_ANGLE_UNIT() SI_UNIT($,.RADIAN.) );
#388 = ( NAMED_UNIT(*) SI_UNIT($,.STERADIAN.) SOLID_ANGLE_UNIT() );
#389 = UNCERTAINTY_MEASURE_WITH_UNIT(LENGTH_MEASURE(1.E-007),#386,
  'distance_accuracy_value','confusion accuracy');
#390 = PRODUCT_TYPE('part',$,(#7));
#391 = MECHANICAL_DESIGN_GEOMETRIC_PRESENTATION_REPRESENTATION('',(#392,
    #400,#407,#414,#421,#429,#436,#443,#450,#457,#464,#471,#478,#485),
  #385);
#392 = STYLED_ITEM('color',(#393),#17);
#393 = PRESENTATION_STYLE_ASSIGNMENT((#394));
#394 = SURFACE_STYLE_USAGE(.BOTH.,#395);
#395 = SURFACE_SIDE_STYLE('',(#396));
#396 = SURFACE_STYLE_FILL_AREA(#397);
#397 = FILL_AREA_STYLE('',(#398));
#398 = FILL_AREA_STYLE_COLOUR('',#399);
#399 = COLOUR_RGB('',0.148000001907,0.144999995828,0.144999995828);
#400 = STYLED_ITEM('color',(#401),#57);
#401 = PRESENTATION_STYLE_ASSIGNMENT((#402));
#402 = SURFACE_STYLE_USAGE(.BOTH.,#403);
#403 = SURFACE_SIDE_STYLE('',(#404));
#404 = SURFACE_STYLE_FILL_AREA(#405);
#405 = FILL_AREA_STYLE('',(#406));
#406 = FILL_AREA_STYLE_COLOUR('',#399);
#407 = STYLED_ITEM('color',(#408),#81);
#408 = PRESENTATION_STYLE_ASSIGNMENT((#409));
#409 = SURFACE_STYLE_USAGE(.BOTH.,#410);
#410 = SURFACE_SIDE_STYLE('',(#411));
#411 = SURFACE_STYLE_FILL_AREA(#412);
#412 = FILL_AREA_STYLE('',(#413));
#413 = FILL_AREA_STYLE_COLOUR('',#399);
#414 = STYLED_ITEM('color',(#415),#159);
#415 = PRESENTATION_STYLE_ASSIGNMENT((#416));
#416 = SURFACE_STYLE_USAGE(.BOTH.,#417);
#417 = SURFACE_SIDE_STYLE('',(#418));
#418 = SURFACE_STYLE_FILL_AREA(#419);
#419 = FILL_AREA_STYLE('',(#420));
#420 = FILL_AREA_STYLE_COLOUR('',#399);
#421 = STYLED_ITEM('color',(#422),#169);
#422 = PRESENTATION_STYLE_ASSIGNMENT((#423));
#423 = SURFACE_STYLE_USAGE(.BOTH.,#424);
#424 = SURFACE_SIDE_STYLE('',(#425));
#425 = SURFACE_STYLE_FILL_AREA(#426);
#426 = FILL_AREA_STYLE('',(#427));
#427 = FILL_AREA_STYLE_COLOUR('',#428);
#428 = COLOUR_RGB('',0.824000000954,0.819999992847,0.78100001812);
#429 = STYLED_ITEM('color',(#430),#200);
#430 = PRESENTATION_STYLE_ASSIGNMENT((#431));
#431 = SURFACE_STYLE_USAGE(.BOTH.,#432);
#432 = SURFACE_SIDE_STYLE('',(#433));
#433 = SURFACE_STYLE_FILL_AREA(#434);
#434 = FILL_AREA_STYLE('',(#435));
#435 = FILL_AREA_STYLE_COLOUR('',#428);
#436 = STYLED_ITEM('color',(#437),#224);
#437 = PRESENTATION_STYLE_ASSIGNMENT((#438));
#438 = SURFACE_STYLE_USAGE(.BOTH.,#439);
#439 = SURFACE_SIDE_STYLE('',(#440));
#440 = SURFACE_STYLE_FILL_AREA(#441);
#441 = FILL_AREA_STYLE('',(#442));
#442 = FILL_AREA_STYLE_COLOUR('',#428);
#443 = STYLED_ITEM('color',(#444),#248);
#444 = PRESENTATION_STYLE_ASSIGNMENT((#445));
#445 = SURFACE_STYLE_USAGE(.BOTH.,#446);
#446 = SURFACE_SIDE_STYLE('',(#447));
#447 = SURFACE_STYLE_FILL_AREA(#448);
#448 = FILL_AREA_STYLE('',(#449));
#449 = FILL_AREA_STYLE_COLOUR('',#428);
#450 = STYLED_ITEM('color',(#451),#265);
#451 = PRESENTATION_STYLE_ASSIGNMENT((#452));
#452 = SURFACE_STYLE_USAGE(.BOTH.,#453);
#453 = SURFACE_SIDE_STYLE('',(#454));
#454 = SURFACE_STYLE_FILL_AREA(#455);
#455 = FILL_AREA_STYLE('',(#456));
#456 = FILL_AREA_STYLE_COLOUR('',#428);
#457 = STYLED_ITEM('color',(#458),#296);
#458 = PRESENTATION_STYLE_ASSIGNMENT((#459));
#459 = SURFACE_STYLE_USAGE(.BOTH.,#460);
#460 = SURFACE_SIDE_STYLE('',(#461));
#461 = SURFACE_STYLE_FILL_AREA(#462);
#462 = FILL_AREA_STYLE('',(#463));
#463 = FILL_AREA_STYLE_COLOUR('',#428);
#464 = STYLED_ITEM('color',(#465),#320);
#465 = PRESENTATION_STYLE_ASSIGNMENT((#466));
#466 = SURFACE_STYLE_USAGE(.BOTH.,#467);
#467 = SURFACE_SIDE_STYLE('',(#468));
#468 = SURFACE_STYLE_FILL_AREA(#469);
#469 = FILL_AREA_STYLE('',(#470));
#470 = FILL_AREA_STYLE_COLOUR('',#428);
#471 = STYLED_ITEM('color',(#472),#344);
#472 = PRESENTATION_STYLE_ASSIGNMENT((#473));
#473 = SURFACE_STYLE_USAGE(.BOTH.,#474);
#474 = SURFACE_SIDE_STYLE('',(#475));
#475 = SURFACE_STYLE_FILL_AREA(#476);
#476 = FILL_AREA_STYLE('',(#477));
#477 = FILL_AREA_STYLE_COLOUR('',#428);
#478 = STYLED_ITEM('color',(#479),#361);
#479 = PRESENTATION_STYLE_ASSIGNMENT((#480));
#480 = SURFACE_STYLE_USAGE(.BOTH.,#481);
#481 = SURFACE_SIDE_STYLE('',(#482));
#482 = SURFACE_STYLE_FILL_AREA(#483);
#483 = FILL_AREA_STYLE('',(#484));
#484 = FILL_AREA_STYLE_COLOUR('',#428);
#485 = STYLED_ITEM('color',(#486),#373);
#486 = PRESENTATION_STYLE_ASSIGNMENT((#487));
#487 = SURFACE_STYLE_USAGE(.BOTH.,#488);
#488 = SURFACE_SIDE_STYLE('',(#489));
#489 = SURFACE_STYLE_FILL_AREA(#490);
#490 = FILL_AREA_STYLE('',(#491));
#491 = FILL_AREA_STYLE_COLOUR('',#428);
ENDSEC;
END-ISO-10303-21;
