ISO-10303-21;
HEADER;
/* RV_Disc_D9mm_W3.8mm_P5mm.step 3D STEP model for use in ECAD systems
 * Copyright (C) 2018, kicad StepUp
 * 
 * This work is licensed under the [Creative Commons CC-BY-SA 4.0 License](https://creativecommons.org/licenses/by-sa/4.0/legalcode), 
 * with the following exception:
 * To the extent that the creation of electronic designs that use 'Licensed Material' can be considered to be 'Adapted Material', 
 * then the copyright holder waives article 3 of the license with respect to these designs and any generated files which use data provided 
 * as part of the 'Licensed Material'.
 * You are free to use the library data in your own projects without the obligation to share your project files under this or any other license agreement.
 * However, if you wish to redistribute these libraries, or parts thereof (including in modified form) as a collection then the exception above does not apply. 
 * Please refer to https://github.com/KiCad/kicad-packages3D/blob/master/LICENSE.md for further clarification of the exception.
 * Disclaimer of Warranties and Limitation of Liability.
 * These libraries are provided in the hope that they will be useful, but are provided without warranty of any kind, express or implied.
 * *USE 3D CAD DATA AT YOUR OWN RISK*
 * *DO NOT RELY UPON ANY INFORMATION FOUND HERE WITHOUT INDEPENDENT VERIFICATION.*
 * 
 */

FILE_DESCRIPTION(
/* description */ ('model of RV_Disc_D9mm_W3.8mm_P5mm'),
/* implementation_level */ '2;1');

FILE_NAME(
/* name */ 'RV_Disc_D9mm_W3.8mm_P5mm.step',
/* time_stamp */ '2018-11-11T21:10:44',
/* author */ ('kicad StepUp','ksu'),
/* organization */ ('FreeCAD'),
/* preprocessor_version */ 'OCC',
/* originating_system */ 'kicad StepUp',
/* authorisation */ '');

FILE_SCHEMA(('AUTOMOTIVE_DESIGN { 1 0 10303 214 1 1 1 1 }'));
ENDSEC;

DATA;
#1 = APPLICATION_PROTOCOL_DEFINITION('international standard',
'automotive_design',2000,#2);
#2 = APPLICATION_CONTEXT(
'core data for automotive mechanical design processes');
#3 = SHAPE_DEFINITION_REPRESENTATION(#4,#10);
#4 = PRODUCT_DEFINITION_SHAPE('','',#5);
#5 = PRODUCT_DEFINITION('design','',#6,#9);
#6 = PRODUCT_DEFINITION_FORMATION('','',#7);
#7 = PRODUCT('RV_Disc_D9mm_W38mm_P5mm','RV_Disc_D9mm_W38mm_P5mm','',(#8)
);
#8 = PRODUCT_CONTEXT('',#2,'mechanical');
#9 = PRODUCT_DEFINITION_CONTEXT('part definition',#2,'design');
#10 = ADVANCED_BREP_SHAPE_REPRESENTATION('',(#11,#15),#382);
#11 = AXIS2_PLACEMENT_3D('',#12,#13,#14);
#12 = CARTESIAN_POINT('',(0.E+000,0.E+000,0.E+000));
#13 = DIRECTION('',(0.E+000,0.E+000,1.));
#14 = DIRECTION('',(1.,0.E+000,-0.E+000));
#15 = MANIFOLD_SOLID_BREP('',#16);
#16 = CLOSED_SHELL('',(#17,#50,#140,#242,#251,#277,#286,#312,#338,#364,
#373));
#17 = ADVANCED_FACE('',(#18),#45,.T.);
#18 = FACE_BOUND('',#19,.F.);
#19 = EDGE_LOOP('',(#20,#30,#37,#38));
#20 = ORIENTED_EDGE('',*,*,#21,.T.);
#21 = EDGE_CURVE('',#22,#24,#26,.T.);
#22 = VERTEX_POINT('',#23);
#23 = CARTESIAN_POINT('',(7.,-0.853658536585,4.53));
#24 = VERTEX_POINT('',#25);
#25 = CARTESIAN_POINT('',(7.,-0.946341463415,4.53));
#26 = LINE('',#27,#28);
#27 = CARTESIAN_POINT('',(7.,1.,4.53));
#28 = VECTOR('',#29,1.);
#29 = DIRECTION('',(0.E+000,-1.,0.E+000));
#30 = ORIENTED_EDGE('',*,*,#31,.T.);
#31 = EDGE_CURVE('',#24,#24,#32,.T.);
#32 = CIRCLE('',#33,4.5);
#33 = AXIS2_PLACEMENT_3D('',#34,#35,#36);
#34 = CARTESIAN_POINT('',(2.5,-0.946341463415,4.53));
#35 = DIRECTION('',(0.E+000,-1.,0.E+000));
#36 = DIRECTION('',(1.,0.E+000,0.E+000));
#37 = ORIENTED_EDGE('',*,*,#21,.F.);
#38 = ORIENTED_EDGE('',*,*,#39,.F.);
#39 = EDGE_CURVE('',#22,#22,#40,.T.);
#40 = CIRCLE('',#41,4.5);
#41 = AXIS2_PLACEMENT_3D('',#42,#43,#44);
#42 = CARTESIAN_POINT('',(2.5,-0.853658536585,4.53));
#43 = DIRECTION('',(0.E+000,-1.,0.E+000));
#44 = DIRECTION('',(1.,0.E+000,0.E+000));
#45 = CYLINDRICAL_SURFACE('',#46,4.5);
#46 = AXIS2_PLACEMENT_3D('',#47,#48,#49);
#47 = CARTESIAN_POINT('',(2.5,1.,4.53));
#48 = DIRECTION('',(0.E+000,1.,0.E+000));
#49 = DIRECTION('',(1.,0.E+000,0.E+000));
#50 = ADVANCED_FACE('',(#51,#71),#135,.T.);
#51 = FACE_BOUND('',#52,.F.);
#52 = EDGE_LOOP('',(#53,#54,#63,#70));
#53 = ORIENTED_EDGE('',*,*,#39,.T.);
#54 = ORIENTED_EDGE('',*,*,#55,.T.);
#55 = EDGE_CURVE('',#22,#56,#58,.T.);
#56 = VERTEX_POINT('',#57);
#57 = CARTESIAN_POINT('',(5.146341463415,1.,4.53));
#58 = CIRCLE('',#59,1.853658536585);
#59 = AXIS2_PLACEMENT_3D('',#60,#61,#62);
#60 = CARTESIAN_POINT('',(5.146341463415,-0.853658536585,4.53));
#61 = DIRECTION('',(0.E+000,0.E+000,1.));
#62 = DIRECTION('',(1.,0.E+000,0.E+000));
#63 = ORIENTED_EDGE('',*,*,#64,.F.);
#64 = EDGE_CURVE('',#56,#56,#65,.T.);
#65 = CIRCLE('',#66,2.646341463415);
#66 = AXIS2_PLACEMENT_3D('',#67,#68,#69);
#67 = CARTESIAN_POINT('',(2.5,1.,4.53));
#68 = DIRECTION('',(0.E+000,-1.,0.E+000));
#69 = DIRECTION('',(1.,0.E+000,0.E+000));
#70 = ORIENTED_EDGE('',*,*,#55,.F.);
#71 = FACE_BOUND('',#72,.F.);
#72 = EDGE_LOOP('',(#73,#100));
#73 = ORIENTED_EDGE('',*,*,#74,.T.);
#74 = EDGE_CURVE('',#75,#77,#79,.T.);
#75 = VERTEX_POINT('',#76);
#76 = CARTESIAN_POINT('',(0.27,0.E+000,0.863110042233));
#77 = VERTEX_POINT('',#78);
#78 = CARTESIAN_POINT('',(-0.152611717035,-0.222732269381,1.03288677966)
);
#79 = B_SPLINE_CURVE_WITH_KNOTS('',7,(#80,#81,#82,#83,#84,#85,#86,#87,
#88,#89,#90,#91,#92,#93,#94,#95,#96,#97,#98,#99),.UNSPECIFIED.,.F.,
.F.,(8,6,6,8),(0.E+000,0.268175050268,0.633044010809,1.),
.UNSPECIFIED.);
#80 = CARTESIAN_POINT('',(0.27,-1.110223024625E-016,0.863110042233));
#81 = CARTESIAN_POINT('',(0.27,-2.144166857737E-002,0.850090127512));
#82 = CARTESIAN_POINT('',(0.268013376686,-4.312779037883E-002,
0.838628734347));
#83 = CARTESIAN_POINT('',(0.263958984026,-6.484793223229E-002,
0.828889436756));
#84 = CARTESIAN_POINT('',(0.257777861623,-8.635661202426E-002,
0.821024950648));
#85 = CARTESIAN_POINT('',(0.249454891417,-0.107373356842,0.815160650784)
);
#86 = CARTESIAN_POINT('',(0.239037074018,-0.127596786383,0.811377781682)
);
#87 = CARTESIAN_POINT('',(0.209792890921,-0.172768360632,0.807408686266)
);
#88 = CARTESIAN_POINT('',(0.189282544679,-0.196800970905,0.809010044777)
);
#89 = CARTESIAN_POINT('',(0.165427155598,-0.218080440248,0.814558949539)
);
#90 = CARTESIAN_POINT('',(0.138759833648,-0.23595095363,0.823890342076)
);
#91 = CARTESIAN_POINT('',(0.109983075447,-0.24993543055,0.8366640904));
#92 = CARTESIAN_POINT('',(7.989385311294E-002,-0.259780671606,
0.852418229793));
#93 = CARTESIAN_POINT('',(1.850657307079E-002,-0.271178260733,
0.888939818758));
#94 = CARTESIAN_POINT('',(-1.279557407337E-002,-0.272682515814,
0.909734209008));
#95 = CARTESIAN_POINT('',(-4.380310442895E-002,-0.269951270501,
0.932470242606));
#96 = CARTESIAN_POINT('',(-7.377797828572E-002,-0.263214076074,
0.956584245593));
#97 = CARTESIAN_POINT('',(-0.102158206952,-0.252841435364,0.981598736364
));
#98 = CARTESIAN_POINT('',(-0.128538478345,-0.239226773304,1.00713288588)
);
#99 = CARTESIAN_POINT('',(-0.152611717035,-0.222732269381,1.03288677966)
);
#100 = ORIENTED_EDGE('',*,*,#101,.T.);
#101 = EDGE_CURVE('',#77,#75,#102,.T.);
#102 = B_SPLINE_CURVE_WITH_KNOTS('',6,(#103,#104,#105,#106,#107,#108,
#109,#110,#111,#112,#113,#114,#115,#116,#117,#118,#119,#120,#121,
#122,#123,#124,#125,#126,#127,#128,#129,#130,#131,#132,#133,#134),
.UNSPECIFIED.,.F.,.F.,(7,5,5,5,5,5,7),(0.E+000,7.687927809934E-002,
0.317069389049,0.48218332357,0.624016719379,0.784999140906,1.),
.UNSPECIFIED.);
#103 = CARTESIAN_POINT('',(-0.152611717035,-0.222732269381,1.03288677966
));
#104 = CARTESIAN_POINT('',(-0.164265125575,-0.214747585835,
1.045353762171));
#105 = CARTESIAN_POINT('',(-0.175360140625,-0.206070354128,
1.057871216804));
#106 = CARTESIAN_POINT('',(-0.185856279018,-0.196748097272,1.07039890549
));
#107 = CARTESIAN_POINT('',(-0.195717962511,-0.18682878386,1.082899220931
));
#108 = CARTESIAN_POINT('',(-0.204913613468,-0.176360460332,
1.095336188474));
#109 = CARTESIAN_POINT('',(-0.239974430902,-0.131119178227,
1.146222341913));
#110 = CARTESIAN_POINT('',(-0.25973204255,-9.198457340167E-002,
1.183774195859));
#111 = CARTESIAN_POINT('',(-0.271879893312,-4.940970443161E-002,
1.219307615827));
#112 = CARTESIAN_POINT('',(-0.275762074575,-4.84783008825E-003,
1.251752506199));
#113 = CARTESIAN_POINT('',(-0.270820668976,3.998523376292E-002,
1.279599030845));
#114 = CARTESIAN_POINT('',(-0.247378367708,0.112557630394,1.315460594926
));
#115 = CARTESIAN_POINT('',(-0.233603399649,0.141243259817,1.326945629772
));
#116 = CARTESIAN_POINT('',(-0.215587720998,0.168331997702,1.334651132225
));
#117 = CARTESIAN_POINT('',(-0.193467590873,0.192930525571,1.337791724334
));
#118 = CARTESIAN_POINT('',(-0.167819115589,0.214057702065,1.335688205443
));
#119 = CARTESIAN_POINT('',(-0.115435621264,0.245712135128,1.322106214133
));
#120 = CARTESIAN_POINT('',(-8.934462871254E-002,0.257325244236,
1.311986158332));
#121 = CARTESIAN_POINT('',(-6.202788891573E-002,0.265493633921,
1.298039276232));
#122 = CARTESIAN_POINT('',(-3.425859993521E-002,0.270087099025,
1.28066994229));
#123 = CARTESIAN_POINT('',(-6.721554884565E-003,0.271246237378,
1.260583567167));
#124 = CARTESIAN_POINT('',(5.039702723506E-002,0.266996804135,
1.213496366382));
#125 = CARTESIAN_POINT('',(7.97705761172E-002,0.260679245638,
1.185913874051));
#126 = CARTESIAN_POINT('',(0.107564374879,0.250698337626,1.156695315171)
);
#127 = CARTESIAN_POINT('',(0.133404712022,0.237497887887,1.126692965275)
);
#128 = CARTESIAN_POINT('',(0.157045191187,0.221437137026,1.096539243989)
);
#129 = CARTESIAN_POINT('',(0.206586586547,0.177889467894,1.026962975401)
);
#130 = CARTESIAN_POINT('',(0.230542321479,0.148413292481,0.987884073655)
);
#131 = CARTESIAN_POINT('',(0.249565129364,0.115077543252,0.950785074743)
);
#132 = CARTESIAN_POINT('',(0.262993188041,7.852735588255E-002,
0.916813918509));
#133 = CARTESIAN_POINT('',(0.27,3.970517989076E-002,0.887220015496));
#134 = CARTESIAN_POINT('',(0.27,-8.326672684689E-017,0.863110042233));
#135 = TOROIDAL_SURFACE('',#136,2.646341463415,1.853658536585);
#136 = AXIS2_PLACEMENT_3D('',#137,#138,#139);
#137 = CARTESIAN_POINT('',(2.5,-0.853658536585,4.53));
#138 = DIRECTION('',(0.E+000,1.,0.E+000));
#139 = DIRECTION('',(1.,0.E+000,0.E+000));
#140 = ADVANCED_FACE('',(#141,#161),#237,.T.);
#141 = FACE_BOUND('',#142,.T.);
#142 = EDGE_LOOP('',(#143,#144,#153,#160));
#143 = ORIENTED_EDGE('',*,*,#31,.T.);
#144 = ORIENTED_EDGE('',*,*,#145,.T.);
#145 = EDGE_CURVE('',#24,#146,#148,.T.);
#146 = VERTEX_POINT('',#147);
#147 = CARTESIAN_POINT('',(5.146341463415,-2.8,4.53));
#148 = CIRCLE('',#149,1.853658536585);
#149 = AXIS2_PLACEMENT_3D('',#150,#151,#152);
#150 = CARTESIAN_POINT('',(5.146341463415,-0.946341463415,4.53));
#151 = DIRECTION('',(0.E+000,0.E+000,-1.));
#152 = DIRECTION('',(1.,0.E+000,0.E+000));
#153 = ORIENTED_EDGE('',*,*,#154,.F.);
#154 = EDGE_CURVE('',#146,#146,#155,.T.);
#155 = CIRCLE('',#156,2.646341463415);
#156 = AXIS2_PLACEMENT_3D('',#157,#158,#159);
#157 = CARTESIAN_POINT('',(2.5,-2.8,4.53));
#158 = DIRECTION('',(0.E+000,-1.,0.E+000));
#159 = DIRECTION('',(1.,0.E+000,0.E+000));
#160 = ORIENTED_EDGE('',*,*,#145,.F.);
#161 = FACE_BOUND('',#162,.T.);
#162 = EDGE_LOOP('',(#163,#184));
#163 = ORIENTED_EDGE('',*,*,#164,.T.);
#164 = EDGE_CURVE('',#165,#167,#169,.T.);
#165 = VERTEX_POINT('',#166);
#166 = CARTESIAN_POINT('',(5.27,-1.8,1.251878287437));
#167 = VERTEX_POINT('',#168);
#168 = CARTESIAN_POINT('',(4.982541926769,-1.53056500658,0.89054243054)
);
#169 = B_SPLINE_CURVE_WITH_KNOTS('',7,(#170,#171,#172,#173,#174,#175,
#176,#177,#178,#179,#180,#181,#182,#183),.UNSPECIFIED.,.F.,.F.,(8,6,
8),(0.E+000,0.409638957855,1.),.UNSPECIFIED.);
#170 = CARTESIAN_POINT('',(5.27,-1.8,1.251878287437));
#171 = CARTESIAN_POINT('',(5.27,-1.774364648825,1.234465767179));
#172 = CARTESIAN_POINT('',(5.267160069933,-1.748937963245,1.215614567653
));
#173 = CARTESIAN_POINT('',(5.261564555052,-1.724032806502,1.195603110922
));
#174 = CARTESIAN_POINT('',(5.253314172744,-1.699939408735,1.174669529898
));
#175 = CARTESIAN_POINT('',(5.242526374297,-1.676931892383,1.153023976205
));
#176 = CARTESIAN_POINT('',(5.229335706665,-1.65527479758,1.130860928036)
);
#177 = CARTESIAN_POINT('',(5.191640238179,-1.606340999556,1.075960314719
));
#178 = CARTESIAN_POINT('',(5.164740199036,-1.580836676892,1.042912586723
));
#179 = CARTESIAN_POINT('',(5.133636133588,-1.559434724975,1.009748910722
));
#180 = CARTESIAN_POINT('',(5.098870952898,-1.5429443015,0.977063276471)
);
#181 = CARTESIAN_POINT('',(5.061253433225,-1.532230131527,0.945621593035
));
#182 = CARTESIAN_POINT('',(5.021986512746,-1.528009189825,0.91642087425)
);
#183 = CARTESIAN_POINT('',(4.982541926769,-1.53056500658,0.89054243054)
);
#184 = ORIENTED_EDGE('',*,*,#185,.T.);
#185 = EDGE_CURVE('',#167,#165,#186,.T.);
#186 = B_SPLINE_CURVE_WITH_KNOTS('',7,(#187,#188,#189,#190,#191,#192,
#193,#194,#195,#196,#197,#198,#199,#200,#201,#202,#203,#204,#205,
#206,#207,#208,#209,#210,#211,#212,#213,#214,#215,#216,#217,#218,
#219,#220,#221,#222,#223,#224,#225,#226,#227,#228,#229,#230,#231,
#232,#233,#234,#235,#236),.UNSPECIFIED.,.F.,.F.,(8,6,6,6,6,6,6,6,8),
(0.E+000,0.19265631768,0.301807694665,0.357029890915,0.507710454898,
0.651734894528,0.784003090067,0.905548026114,1.),.UNSPECIFIED.);
#187 = CARTESIAN_POINT('',(4.982541926769,-1.53056500658,0.89054243054)
);
#188 = CARTESIAN_POINT('',(4.946930316396,-1.532872465214,0.867178690456
));
#189 = CARTESIAN_POINT('',(4.911231421037,-1.540699928421,0.846560444717
));
#190 = CARTESIAN_POINT('',(4.876657374917,-1.554215971177,0.829551738183
));
#191 = CARTESIAN_POINT('',(4.844485723653,-1.573185724659,0.816930363358
));
#192 = CARTESIAN_POINT('',(4.815878376222,-1.596950382443,0.809304769328
));
#193 = CARTESIAN_POINT('',(4.791699900032,-1.624515076157,0.806970426499
));
#194 = CARTESIAN_POINT('',(4.761496077164,-1.671828259387,0.811448028773
));
#195 = CARTESIAN_POINT('',(4.752142224114,-1.689790093836,0.814734544208
));
#196 = CARTESIAN_POINT('',(4.744443179039,-1.708394491821,0.819672172116
));
#197 = CARTESIAN_POINT('',(4.738436324436,-1.72742921205,0.826206844355)
);
#198 = CARTESIAN_POINT('',(4.73411908194,-1.746693480306,0.834255644761)
);
#199 = CARTESIAN_POINT('',(4.731458901693,-1.766006636984,0.843716189613
));
#200 = CARTESIAN_POINT('',(4.729872407086,-1.794925078294,0.859919948604
));
#201 = CARTESIAN_POINT('',(4.729750628212,-1.804612669909,0.865696544005
));
#202 = CARTESIAN_POINT('',(4.730033549188,-1.814252297349,0.87179167561)
);
#203 = CARTESIAN_POINT('',(4.730713563709,-1.823825168238,0.878190443459
));
#204 = CARTESIAN_POINT('',(4.731782273711,-1.833313897399,0.884877570164
));
#205 = CARTESIAN_POINT('',(4.733230791148,-1.842702458326,0.891837605244
));
#206 = CARTESIAN_POINT('',(4.740014083708,-1.877280502761,0.91874903322)
);
#207 = CARTESIAN_POINT('',(4.747737289929,-1.901724077072,0.940355803668
));
#208 = CARTESIAN_POINT('',(4.758034290856,-1.925015602203,0.963566264712
));
#209 = CARTESIAN_POINT('',(4.770710391109,-1.94691873877,0.988063674735)
);
#210 = CARTESIAN_POINT('',(4.785581743246,-1.96723464004,1.013531306374)
);
#211 = CARTESIAN_POINT('',(4.802482527053,-1.985780670933,1.039647619634
));
#212 = CARTESIAN_POINT('',(4.839206304764,-2.018217263991,1.091323304509
));
#213 = CARTESIAN_POINT('',(4.858854309805,-2.032265944958,1.11683824533)
);
#214 = CARTESIAN_POINT('',(4.880076154914,-2.044358509358,1.142328648544
));
#215 = CARTESIAN_POINT('',(4.902737879838,-2.054308530653,1.167461772115
));
#216 = CARTESIAN_POINT('',(4.926669521966,-2.061895435415,1.191829992041
));
#217 = CARTESIAN_POINT('',(4.951638649205,-2.066881490157,1.214957398594
));
#218 = CARTESIAN_POINT('',(5.000917459597,-2.07103440014,1.255977844497)
);
#219 = CARTESIAN_POINT('',(5.025130512024,-2.070644223216,1.274156924321
));
#220 = CARTESIAN_POINT('',(5.049624095492,-2.067693014534,1.290407115105
));
#221 = CARTESIAN_POINT('',(5.073991691117,-2.062066088074,1.304275412724
));
#222 = CARTESIAN_POINT('',(5.097775854944,-2.053759112347,1.315412477571
));
#223 = CARTESIAN_POINT('',(5.120509026742,-2.042904004241,1.323629551539
));
#224 = CARTESIAN_POINT('',(5.161328555719,-2.017716971833,1.333793205303
));
#225 = CARTESIAN_POINT('',(5.17965786154,-2.003728576382,1.33619799937)
);
#226 = CARTESIAN_POINT('',(5.196464417408,-1.988010892253,1.33613476217)
);
#227 = CARTESIAN_POINT('',(5.211522103969,-1.970826994267,1.333730384133
));
#228 = CARTESIAN_POINT('',(5.224687927732,-1.952460449605,1.32918452681)
);
#229 = CARTESIAN_POINT('',(5.235890663613,-1.933184359464,1.32272208538)
);
#230 = CARTESIAN_POINT('',(5.252262698303,-1.897749111429,1.308213607906
));
#231 = CARTESIAN_POINT('',(5.258220719883,-1.881851904477,1.300841184317
));
#232 = CARTESIAN_POINT('',(5.262966691936,-1.865664919626,1.292540923244
));
#233 = CARTESIAN_POINT('',(5.266502893737,-1.849293013882,1.283408927914
));
#234 = CARTESIAN_POINT('',(5.268841274446,-1.832833416147,1.273535099854
));
#235 = CARTESIAN_POINT('',(5.27,-1.816375407252,1.263001096271));
#236 = CARTESIAN_POINT('',(5.27,-1.8,1.251878287437));
#237 = TOROIDAL_SURFACE('',#238,2.646341463415,1.853658536585);
#238 = AXIS2_PLACEMENT_3D('',#239,#240,#241);
#239 = CARTESIAN_POINT('',(2.5,-0.946341463415,4.53));
#240 = DIRECTION('',(0.E+000,-1.,0.E+000));
#241 = DIRECTION('',(1.,0.E+000,0.E+000));
#242 = ADVANCED_FACE('',(#243),#246,.F.);
#243 = FACE_BOUND('',#244,.F.);
#244 = EDGE_LOOP('',(#245));
#245 = ORIENTED_EDGE('',*,*,#64,.T.);
#246 = PLANE('',#247);
#247 = AXIS2_PLACEMENT_3D('',#248,#249,#250);
#248 = CARTESIAN_POINT('',(2.5,1.,4.53));
#249 = DIRECTION('',(-0.E+000,-1.,-0.E+000));
#250 = DIRECTION('',(0.E+000,0.E+000,-1.));
#251 = ADVANCED_FACE('',(#252),#272,.T.);
#252 = FACE_BOUND('',#253,.T.);
#253 = EDGE_LOOP('',(#254,#255,#263,#270,#271));
#254 = ORIENTED_EDGE('',*,*,#101,.T.);
#255 = ORIENTED_EDGE('',*,*,#256,.T.);
#256 = EDGE_CURVE('',#75,#257,#259,.T.);
#257 = VERTEX_POINT('',#258);
#258 = CARTESIAN_POINT('',(0.27,0.E+000,-2.892));
#259 = LINE('',#260,#261);
#260 = CARTESIAN_POINT('',(0.27,0.E+000,4.53));
#261 = VECTOR('',#262,1.);
#262 = DIRECTION('',(-0.E+000,-0.E+000,-1.));
#263 = ORIENTED_EDGE('',*,*,#264,.T.);
#264 = EDGE_CURVE('',#257,#257,#265,.T.);
#265 = CIRCLE('',#266,0.27);
#266 = AXIS2_PLACEMENT_3D('',#267,#268,#269);
#267 = CARTESIAN_POINT('',(0.E+000,0.E+000,-2.892));
#268 = DIRECTION('',(0.E+000,0.E+000,1.));
#269 = DIRECTION('',(1.,0.E+000,0.E+000));
#270 = ORIENTED_EDGE('',*,*,#256,.F.);
#271 = ORIENTED_EDGE('',*,*,#74,.T.);
#272 = CYLINDRICAL_SURFACE('',#273,0.27);
#273 = AXIS2_PLACEMENT_3D('',#274,#275,#276);
#274 = CARTESIAN_POINT('',(0.E+000,0.E+000,4.53));
#275 = DIRECTION('',(0.E+000,0.E+000,1.));
#276 = DIRECTION('',(1.,0.E+000,0.E+000));
#277 = ADVANCED_FACE('',(#278),#281,.T.);
#278 = FACE_BOUND('',#279,.T.);
#279 = EDGE_LOOP('',(#280));
#280 = ORIENTED_EDGE('',*,*,#154,.T.);
#281 = PLANE('',#282);
#282 = AXIS2_PLACEMENT_3D('',#283,#284,#285);
#283 = CARTESIAN_POINT('',(2.5,-2.8,4.53));
#284 = DIRECTION('',(-0.E+000,-1.,-0.E+000));
#285 = DIRECTION('',(0.E+000,0.E+000,-1.));
#286 = ADVANCED_FACE('',(#287),#307,.T.);
#287 = FACE_BOUND('',#288,.T.);
#288 = EDGE_LOOP('',(#289,#290,#298,#305,#306));
#289 = ORIENTED_EDGE('',*,*,#164,.F.);
#290 = ORIENTED_EDGE('',*,*,#291,.T.);
#291 = EDGE_CURVE('',#165,#292,#294,.T.);
#292 = VERTEX_POINT('',#293);
#293 = CARTESIAN_POINT('',(5.27,-1.8,-2.892));
#294 = LINE('',#295,#296);
#295 = CARTESIAN_POINT('',(5.27,-1.8,4.53));
#296 = VECTOR('',#297,1.);
#297 = DIRECTION('',(-0.E+000,-0.E+000,-1.));
#298 = ORIENTED_EDGE('',*,*,#299,.T.);
#299 = EDGE_CURVE('',#292,#292,#300,.T.);
#300 = CIRCLE('',#301,0.27);
#301 = AXIS2_PLACEMENT_3D('',#302,#303,#304);
#302 = CARTESIAN_POINT('',(5.,-1.8,-2.892));
#303 = DIRECTION('',(0.E+000,0.E+000,1.));
#304 = DIRECTION('',(1.,0.E+000,0.E+000));
#305 = ORIENTED_EDGE('',*,*,#291,.F.);
#306 = ORIENTED_EDGE('',*,*,#185,.F.);
#307 = CYLINDRICAL_SURFACE('',#308,0.27);
#308 = AXIS2_PLACEMENT_3D('',#309,#310,#311);
#309 = CARTESIAN_POINT('',(5.,-1.8,4.53));
#310 = DIRECTION('',(0.E+000,0.E+000,1.));
#311 = DIRECTION('',(1.,0.E+000,0.E+000));
#312 = ADVANCED_FACE('',(#313),#333,.T.);
#313 = FACE_BOUND('',#314,.F.);
#314 = EDGE_LOOP('',(#315,#324,#325,#326));
#315 = ORIENTED_EDGE('',*,*,#316,.F.);
#316 = EDGE_CURVE('',#257,#317,#319,.T.);
#317 = VERTEX_POINT('',#318);
#318 = CARTESIAN_POINT('',(0.162,0.E+000,-3.));
#319 = CIRCLE('',#320,0.108);
#320 = AXIS2_PLACEMENT_3D('',#321,#322,#323);
#321 = CARTESIAN_POINT('',(0.162,0.E+000,-2.892));
#322 = DIRECTION('',(-0.E+000,1.,0.E+000));
#323 = DIRECTION('',(1.,0.E+000,0.E+000));
#324 = ORIENTED_EDGE('',*,*,#264,.T.);
#325 = ORIENTED_EDGE('',*,*,#316,.T.);
#326 = ORIENTED_EDGE('',*,*,#327,.F.);
#327 = EDGE_CURVE('',#317,#317,#328,.T.);
#328 = CIRCLE('',#329,0.162);
#329 = AXIS2_PLACEMENT_3D('',#330,#331,#332);
#330 = CARTESIAN_POINT('',(0.E+000,0.E+000,-3.));
#331 = DIRECTION('',(0.E+000,0.E+000,1.));
#332 = DIRECTION('',(1.,0.E+000,0.E+000));
#333 = TOROIDAL_SURFACE('',#334,0.162,0.108);
#334 = AXIS2_PLACEMENT_3D('',#335,#336,#337);
#335 = CARTESIAN_POINT('',(0.E+000,0.E+000,-2.892));
#336 = DIRECTION('',(-0.E+000,-0.E+000,-1.));
#337 = DIRECTION('',(1.,0.E+000,0.E+000));
#338 = ADVANCED_FACE('',(#339),#359,.T.);
#339 = FACE_BOUND('',#340,.F.);
#340 = EDGE_LOOP('',(#341,#350,#351,#352));
#341 = ORIENTED_EDGE('',*,*,#342,.F.);
#342 = EDGE_CURVE('',#292,#343,#345,.T.);
#343 = VERTEX_POINT('',#344);
#344 = CARTESIAN_POINT('',(5.162,-1.8,-3.));
#345 = CIRCLE('',#346,0.108);
#346 = AXIS2_PLACEMENT_3D('',#347,#348,#349);
#347 = CARTESIAN_POINT('',(5.162,-1.8,-2.892));
#348 = DIRECTION('',(-0.E+000,1.,0.E+000));
#349 = DIRECTION('',(1.,0.E+000,0.E+000));
#350 = ORIENTED_EDGE('',*,*,#299,.T.);
#351 = ORIENTED_EDGE('',*,*,#342,.T.);
#352 = ORIENTED_EDGE('',*,*,#353,.F.);
#353 = EDGE_CURVE('',#343,#343,#354,.T.);
#354 = CIRCLE('',#355,0.162);
#355 = AXIS2_PLACEMENT_3D('',#356,#357,#358);
#356 = CARTESIAN_POINT('',(5.,-1.8,-3.));
#357 = DIRECTION('',(0.E+000,0.E+000,1.));
#358 = DIRECTION('',(1.,0.E+000,0.E+000));
#359 = TOROIDAL_SURFACE('',#360,0.162,0.108);
#360 = AXIS2_PLACEMENT_3D('',#361,#362,#363);
#361 = CARTESIAN_POINT('',(5.,-1.8,-2.892));
#362 = DIRECTION('',(-0.E+000,-0.E+000,-1.));
#363 = DIRECTION('',(1.,0.E+000,0.E+000));
#364 = ADVANCED_FACE('',(#365),#368,.F.);
#365 = FACE_BOUND('',#366,.F.);
#366 = EDGE_LOOP('',(#367));
#367 = ORIENTED_EDGE('',*,*,#327,.T.);
#368 = PLANE('',#369);
#369 = AXIS2_PLACEMENT_3D('',#370,#371,#372);
#370 = CARTESIAN_POINT('',(-1.978356673234E-017,2.854531227236E-017,-3.)
);
#371 = DIRECTION('',(0.E+000,0.E+000,1.));
#372 = DIRECTION('',(1.,0.E+000,0.E+000));
#373 = ADVANCED_FACE('',(#374),#377,.F.);
#374 = FACE_BOUND('',#375,.F.);
#375 = EDGE_LOOP('',(#376));
#376 = ORIENTED_EDGE('',*,*,#353,.T.);
#377 = PLANE('',#378);
#378 = AXIS2_PLACEMENT_3D('',#379,#380,#381);
#379 = CARTESIAN_POINT('',(5.,-1.8,-3.));
#380 = DIRECTION('',(0.E+000,0.E+000,1.));
#381 = DIRECTION('',(1.,0.E+000,0.E+000));
#382 = ( GEOMETRIC_REPRESENTATION_CONTEXT(3)
GLOBAL_UNCERTAINTY_ASSIGNED_CONTEXT((#386)) GLOBAL_UNIT_ASSIGNED_CONTEXT
((#383,#384,#385)) REPRESENTATION_CONTEXT('Context #1',
'3D Context with UNIT and UNCERTAINTY') );
#383 = ( LENGTH_UNIT() NAMED_UNIT(*) SI_UNIT(.MILLI.,.METRE.) );
#384 = ( NAMED_UNIT(*) PLANE_ANGLE_UNIT() SI_UNIT($,.RADIAN.) );
#385 = ( NAMED_UNIT(*) SI_UNIT($,.STERADIAN.) SOLID_ANGLE_UNIT() );
#386 = UNCERTAINTY_MEASURE_WITH_UNIT(LENGTH_MEASURE(1.E-007),#383,
'distance_accuracy_value','confusion accuracy');
#387 = PRODUCT_RELATED_PRODUCT_CATEGORY('part',$,(#7));
#388 = MECHANICAL_DESIGN_GEOMETRIC_PRESENTATION_REPRESENTATION('',(#389,
#397,#404,#411,#418,#426,#433,#440,#447,#454,#461),#382);
#389 = STYLED_ITEM('color',(#390),#17);
#390 = PRESENTATION_STYLE_ASSIGNMENT((#391));
#391 = SURFACE_STYLE_USAGE(.BOTH.,#392);
#392 = SURFACE_SIDE_STYLE('',(#393));
#393 = SURFACE_STYLE_FILL_AREA(#394);
#394 = FILL_AREA_STYLE('',(#395));
#395 = FILL_AREA_STYLE_COLOUR('',#396);
#396 = COLOUR_RGB('',0.136999994516,0.402000010014,0.726999998093);
#397 = STYLED_ITEM('color',(#398),#50);
#398 = PRESENTATION_STYLE_ASSIGNMENT((#399));
#399 = SURFACE_STYLE_USAGE(.BOTH.,#400);
#400 = SURFACE_SIDE_STYLE('',(#401));
#401 = SURFACE_STYLE_FILL_AREA(#402);
#402 = FILL_AREA_STYLE('',(#403));
#403 = FILL_AREA_STYLE_COLOUR('',#396);
#404 = STYLED_ITEM('color',(#405),#140);
#405 = PRESENTATION_STYLE_ASSIGNMENT((#406));
#406 = SURFACE_STYLE_USAGE(.BOTH.,#407);
#407 = SURFACE_SIDE_STYLE('',(#408));
#408 = SURFACE_STYLE_FILL_AREA(#409);
#409 = FILL_AREA_STYLE('',(#410));
#410 = FILL_AREA_STYLE_COLOUR('',#396);
#411 = STYLED_ITEM('color',(#412),#242);
#412 = PRESENTATION_STYLE_ASSIGNMENT((#413));
#413 = SURFACE_STYLE_USAGE(.BOTH.,#414);
#414 = SURFACE_SIDE_STYLE('',(#415));
#415 = SURFACE_STYLE_FILL_AREA(#416);
#416 = FILL_AREA_STYLE('',(#417));
#417 = FILL_AREA_STYLE_COLOUR('',#396);
#418 = STYLED_ITEM('color',(#419),#251);
#419 = PRESENTATION_STYLE_ASSIGNMENT((#420));
#420 = SURFACE_STYLE_USAGE(.BOTH.,#421);
#421 = SURFACE_SIDE_STYLE('',(#422));
#422 = SURFACE_STYLE_FILL_AREA(#423);
#423 = FILL_AREA_STYLE('',(#424));
#424 = FILL_AREA_STYLE_COLOUR('',#425);
#425 = COLOUR_RGB('',0.824000000954,0.819999992847,0.78100001812);
#426 = STYLED_ITEM('color',(#427),#277);
#427 = PRESENTATION_STYLE_ASSIGNMENT((#428));
#428 = SURFACE_STYLE_USAGE(.BOTH.,#429);
#429 = SURFACE_SIDE_STYLE('',(#430));
#430 = SURFACE_STYLE_FILL_AREA(#431);
#431 = FILL_AREA_STYLE('',(#432));
#432 = FILL_AREA_STYLE_COLOUR('',#396);
#433 = STYLED_ITEM('color',(#434),#286);
#434 = PRESENTATION_STYLE_ASSIGNMENT((#435));
#435 = SURFACE_STYLE_USAGE(.BOTH.,#436);
#436 = SURFACE_SIDE_STYLE('',(#437));
#437 = SURFACE_STYLE_FILL_AREA(#438);
#438 = FILL_AREA_STYLE('',(#439));
#439 = FILL_AREA_STYLE_COLOUR('',#425);
#440 = STYLED_ITEM('color',(#441),#312);
#441 = PRESENTATION_STYLE_ASSIGNMENT((#442));
#442 = SURFACE_STYLE_USAGE(.BOTH.,#443);
#443 = SURFACE_SIDE_STYLE('',(#444));
#444 = SURFACE_STYLE_FILL_AREA(#445);
#445 = FILL_AREA_STYLE('',(#446));
#446 = FILL_AREA_STYLE_COLOUR('',#425);
#447 = STYLED_ITEM('color',(#448),#338);
#448 = PRESENTATION_STYLE_ASSIGNMENT((#449));
#449 = SURFACE_STYLE_USAGE(.BOTH.,#450);
#450 = SURFACE_SIDE_STYLE('',(#451));
#451 = SURFACE_STYLE_FILL_AREA(#452);
#452 = FILL_AREA_STYLE('',(#453));
#453 = FILL_AREA_STYLE_COLOUR('',#425);
#454 = STYLED_ITEM('color',(#455),#364);
#455 = PRESENTATION_STYLE_ASSIGNMENT((#456));
#456 = SURFACE_STYLE_USAGE(.BOTH.,#457);
#457 = SURFACE_SIDE_STYLE('',(#458));
#458 = SURFACE_STYLE_FILL_AREA(#459);
#459 = FILL_AREA_STYLE('',(#460));
#460 = FILL_AREA_STYLE_COLOUR('',#425);
#461 = STYLED_ITEM('color',(#462),#373);
#462 = PRESENTATION_STYLE_ASSIGNMENT((#463));
#463 = SURFACE_STYLE_USAGE(.BOTH.,#464);
#464 = SURFACE_SIDE_STYLE('',(#465));
#465 = SURFACE_STYLE_FILL_AREA(#466);
#466 = FILL_AREA_STYLE('',(#467));
#467 = FILL_AREA_STYLE_COLOUR('',#425);
ENDSEC;
END-ISO-10303-21;
