ISO-10303-21;
HEADER;
/* RV_Disc_D12mm_W4.5mm_P7.5mm.step 3D STEP model for use in ECAD systems
 * Copyright (C) 2018, kicad StepUp
 * 
 * This work is licensed under the [Creative Commons CC-BY-SA 4.0 License](https://creativecommons.org/licenses/by-sa/4.0/legalcode), 
 * with the following exception:
 * To the extent that the creation of electronic designs that use 'Licensed Material' can be considered to be 'Adapted Material', 
 * then the copyright holder waives article 3 of the license with respect to these designs and any generated files which use data provided 
 * as part of the 'Licensed Material'.
 * You are free to use the library data in your own projects without the obligation to share your project files under this or any other license agreement.
 * However, if you wish to redistribute these libraries, or parts thereof (including in modified form) as a collection then the exception above does not apply. 
 * Please refer to https://github.com/KiCad/kicad-packages3D/blob/master/LICENSE.md for further clarification of the exception.
 * Disclaimer of Warranties and Limitation of Liability.
 * These libraries are provided in the hope that they will be useful, but are provided without warranty of any kind, express or implied.
 * *USE 3D CAD DATA AT YOUR OWN RISK*
 * *DO NOT RELY UPON ANY INFORMATION FOUND HERE WITHOUT INDEPENDENT VERIFICATION.*
 * 
 */

FILE_DESCRIPTION(
/* description */ ('model of RV_Disc_D12mm_W4.5mm_P7.5mm'),
/* implementation_level */ '2;1');

FILE_NAME(
/* name */ 'RV_Disc_D12mm_W4.5mm_P7.5mm.step',
/* time_stamp */ '2018-11-11T20:34:07',
/* author */ ('kicad StepUp','ksu'),
/* organization */ ('FreeCAD'),
/* preprocessor_version */ 'OCC',
/* originating_system */ 'kicad StepUp',
/* authorisation */ '');

FILE_SCHEMA(('AUTOMOTIVE_DESIGN { 1 0 10303 214 1 1 1 1 }'));
ENDSEC;

DATA;
#1 = APPLICATION_PROTOCOL_DEFINITION('international standard',
'automotive_design',2000,#2);
#2 = APPLICATION_CONTEXT(
'core data for automotive mechanical design processes');
#3 = SHAPE_DEFINITION_REPRESENTATION(#4,#10);
#4 = PRODUCT_DEFINITION_SHAPE('','',#5);
#5 = PRODUCT_DEFINITION('design','',#6,#9);
#6 = PRODUCT_DEFINITION_FORMATION('','',#7);
#7 = PRODUCT('RV_Disc_D12mm_W45mm_P75mm','RV_Disc_D12mm_W45mm_P75mm','',
(#8));
#8 = PRODUCT_CONTEXT('',#2,'mechanical');
#9 = PRODUCT_DEFINITION_CONTEXT('part definition',#2,'design');
#10 = ADVANCED_BREP_SHAPE_REPRESENTATION('',(#11,#15),#395);
#11 = AXIS2_PLACEMENT_3D('',#12,#13,#14);
#12 = CARTESIAN_POINT('',(0.E+000,0.E+000,0.E+000));
#13 = DIRECTION('',(0.E+000,0.E+000,1.));
#14 = DIRECTION('',(1.,0.E+000,-0.E+000));
#15 = MANIFOLD_SOLID_BREP('',#16);
#16 = CLOSED_SHELL('',(#17,#50,#158,#255,#264,#290,#299,#325,#351,#377,
#386));
#17 = ADVANCED_FACE('',(#18),#45,.T.);
#18 = FACE_BOUND('',#19,.F.);
#19 = EDGE_LOOP('',(#20,#30,#37,#38));
#20 = ORIENTED_EDGE('',*,*,#21,.T.);
#21 = EDGE_CURVE('',#22,#24,#26,.T.);
#22 = VERTEX_POINT('',#23);
#23 = CARTESIAN_POINT('',(9.75,-0.84512195122,6.03));
#24 = VERTEX_POINT('',#25);
#25 = CARTESIAN_POINT('',(9.75,-0.95487804878,6.03));
#26 = LINE('',#27,#28);
#27 = CARTESIAN_POINT('',(9.75,1.35,6.03));
#28 = VECTOR('',#29,1.);
#29 = DIRECTION('',(0.E+000,-1.,0.E+000));
#30 = ORIENTED_EDGE('',*,*,#31,.T.);
#31 = EDGE_CURVE('',#24,#24,#32,.T.);
#32 = CIRCLE('',#33,6.);
#33 = AXIS2_PLACEMENT_3D('',#34,#35,#36);
#34 = CARTESIAN_POINT('',(3.75,-0.95487804878,6.03));
#35 = DIRECTION('',(0.E+000,-1.,0.E+000));
#36 = DIRECTION('',(1.,0.E+000,0.E+000));
#37 = ORIENTED_EDGE('',*,*,#21,.F.);
#38 = ORIENTED_EDGE('',*,*,#39,.F.);
#39 = EDGE_CURVE('',#22,#22,#40,.T.);
#40 = CIRCLE('',#41,6.);
#41 = AXIS2_PLACEMENT_3D('',#42,#43,#44);
#42 = CARTESIAN_POINT('',(3.75,-0.84512195122,6.03));
#43 = DIRECTION('',(0.E+000,-1.,0.E+000));
#44 = DIRECTION('',(1.,0.E+000,0.E+000));
#45 = CYLINDRICAL_SURFACE('',#46,6.);
#46 = AXIS2_PLACEMENT_3D('',#47,#48,#49);
#47 = CARTESIAN_POINT('',(3.75,1.35,6.03));
#48 = DIRECTION('',(0.E+000,1.,0.E+000));
#49 = DIRECTION('',(1.,0.E+000,0.E+000));
#50 = ADVANCED_FACE('',(#51,#71),#153,.T.);
#51 = FACE_BOUND('',#52,.F.);
#52 = EDGE_LOOP('',(#53,#54,#63,#70));
#53 = ORIENTED_EDGE('',*,*,#39,.T.);
#54 = ORIENTED_EDGE('',*,*,#55,.T.);
#55 = EDGE_CURVE('',#22,#56,#58,.T.);
#56 = VERTEX_POINT('',#57);
#57 = CARTESIAN_POINT('',(7.55487804878,1.35,6.03));
#58 = CIRCLE('',#59,2.19512195122);
#59 = AXIS2_PLACEMENT_3D('',#60,#61,#62);
#60 = CARTESIAN_POINT('',(7.55487804878,-0.84512195122,6.03));
#61 = DIRECTION('',(0.E+000,0.E+000,1.));
#62 = DIRECTION('',(1.,0.E+000,0.E+000));
#63 = ORIENTED_EDGE('',*,*,#64,.F.);
#64 = EDGE_CURVE('',#56,#56,#65,.T.);
#65 = CIRCLE('',#66,3.80487804878);
#66 = AXIS2_PLACEMENT_3D('',#67,#68,#69);
#67 = CARTESIAN_POINT('',(3.75,1.35,6.03));
#68 = DIRECTION('',(0.E+000,-1.,0.E+000));
#69 = DIRECTION('',(1.,0.E+000,0.E+000));
#70 = ORIENTED_EDGE('',*,*,#55,.F.);
#71 = FACE_BOUND('',#72,.F.);
#72 = EDGE_LOOP('',(#73,#112));
#73 = ORIENTED_EDGE('',*,*,#74,.T.);
#74 = EDGE_CURVE('',#75,#77,#79,.T.);
#75 = VERTEX_POINT('',#76);
#76 = CARTESIAN_POINT('',(0.36,0.E+000,1.285946785334));
#77 = VERTEX_POINT('',#78);
#78 = CARTESIAN_POINT('',(-0.327277585,-0.149964603678,1.783493633189));
#79 = B_SPLINE_CURVE_WITH_KNOTS('',7,(#80,#81,#82,#83,#84,#85,#86,#87,
#88,#89,#90,#91,#92,#93,#94,#95,#96,#97,#98,#99,#100,#101,#102,#103,
#104,#105,#106,#107,#108,#109,#110,#111),.UNSPECIFIED.,.F.,.F.,(8,6,
6,6,6,8),(0.E+000,0.156641143377,0.327473671213,0.428210515507,
0.809365373891,1.),.UNSPECIFIED.);
#80 = CARTESIAN_POINT('',(0.36,-5.551115123126E-017,1.285946785334));
#81 = CARTESIAN_POINT('',(0.36,-2.163965326212E-002,1.274851802992));
#82 = CARTESIAN_POINT('',(0.358482424798,-4.351593807143E-002,
1.265119278099));
#83 = CARTESIAN_POINT('',(0.355387636718,-6.549474301735E-002,
1.256856948418));
#84 = CARTESIAN_POINT('',(0.350670796937,-8.742167919353E-002,
1.250162696487));
#85 = CARTESIAN_POINT('',(0.344311293233,-0.109123091004,1.245115518644)
);
#86 = CARTESIAN_POINT('',(0.336321537373,-0.130412085721,1.24176643332)
);
#87 = CARTESIAN_POINT('',(0.316322029114,-0.173661324973,1.23834390536)
);
#88 = CARTESIAN_POINT('',(0.304010195043,-0.195515468689,1.238594098514)
);
#89 = CARTESIAN_POINT('',(0.289888234517,-0.216411177491,1.240900973746)
);
#90 = CARTESIAN_POINT('',(0.274073259603,-0.236122592557,1.245228968676)
);
#91 = CARTESIAN_POINT('',(0.256720218974,-0.254454148052,1.25149704908)
);
#92 = CARTESIAN_POINT('',(0.238011227026,-0.271245887478,1.259589865098)
);
#93 = CARTESIAN_POINT('',(0.206430076032,-0.295302372403,1.275135431426)
);
#94 = CARTESIAN_POINT('',(0.194311400405,-0.303650108464,1.281489003866)
);
#95 = CARTESIAN_POINT('',(0.18182798875,-0.311398176281,1.288402141913)
);
#96 = CARTESIAN_POINT('',(0.169020273977,-0.318527244782,1.295845224904)
);
#97 = CARTESIAN_POINT('',(0.155929435557,-0.325022226501,1.303787135347)
);
#98 = CARTESIAN_POINT('',(0.142596835787,-0.330872040327,1.312195899887)
);
#99 = CARTESIAN_POINT('',(7.785762896725E-002,-0.355734364642,
1.354499942233));
#100 = CARTESIAN_POINT('',(2.371863519695E-002,-0.366080823527,
1.394221891502));
#101 = CARTESIAN_POINT('',(-3.095526717938E-002,-0.366601681526,
1.438359509963));
#102 = CARTESIAN_POINT('',(-8.393069291084E-002,-0.357824152376,
1.484981289318));
#103 = CARTESIAN_POINT('',(-0.133593489218,-0.340756393455,
1.532653409469));
#104 = CARTESIAN_POINT('',(-0.178841946713,-0.316466564553,
1.580327298824));
#105 = CARTESIAN_POINT('',(-0.238823564571,-0.270550490012,
1.650684156651));
#106 = CARTESIAN_POINT('',(-0.257497319238,-0.253667058124,
1.673939140094));
#107 = CARTESIAN_POINT('',(-0.27473386146,-0.235330107007,1.696885257612
));
#108 = CARTESIAN_POINT('',(-0.290427551752,-0.215662796742,
1.719419605757));
#109 = CARTESIAN_POINT('',(-0.304478807705,-0.194791349201,
1.741439016411));
#110 = CARTESIAN_POINT('',(-0.316792706098,-0.172846442206,
1.762835824081));
#111 = CARTESIAN_POINT('',(-0.327277585,-0.149964603678,1.783493633189)
);
#112 = ORIENTED_EDGE('',*,*,#113,.T.);
#113 = EDGE_CURVE('',#77,#75,#114,.T.);
#114 = B_SPLINE_CURVE_WITH_KNOTS('',7,(#115,#116,#117,#118,#119,#120,
#121,#122,#123,#124,#125,#126,#127,#128,#129,#130,#131,#132,#133,
#134,#135,#136,#137,#138,#139,#140,#141,#142,#143,#144,#145,#146,
#147,#148,#149,#150,#151,#152),.UNSPECIFIED.,.F.,.F.,(8,6,6,6,6,6,8)
,(0.E+000,0.174657450863,0.23774649117,0.350624882502,0.461020093835,
0.715156960939,1.),.UNSPECIFIED.);
#115 = CARTESIAN_POINT('',(-0.327277585,-0.149964603678,1.783493633189)
);
#116 = CARTESIAN_POINT('',(-0.340255612408,-0.121641803738,1.80906356254
));
#117 = CARTESIAN_POINT('',(-0.350427720431,-9.189159297169E-002,
1.833494049893));
#118 = CARTESIAN_POINT('',(-0.357626340099,-6.096718949874E-002,
1.856571519976));
#119 = CARTESIAN_POINT('',(-0.361680093681,-2.915026091347E-002,
1.878045993751));
#120 = CARTESIAN_POINT('',(-0.362425338057,3.233322358051E-003,
1.897619404294));
#121 = CARTESIAN_POINT('',(-0.359724846553,3.580525540318E-002,
1.914944442365));
#122 = CARTESIAN_POINT('',(-0.351242814796,7.981177606225E-002,
1.934940008103));
#123 = CARTESIAN_POINT('',(-0.348531612583,9.145624110737E-002,
1.939901529506));
#124 = CARTESIAN_POINT('',(-0.345356388448,0.103046412072,1.944500119857
));
#125 = CARTESIAN_POINT('',(-0.341714703211,0.114559699391,1.948716567043
));
#126 = CARTESIAN_POINT('',(-0.33760571946,0.125972179977,1.952531271569)
);
#127 = CARTESIAN_POINT('',(-0.333030608322,0.137258781341,1.955924695262
));
#128 = CARTESIAN_POINT('',(-0.318979630593,0.168315551268,1.964161498469
));
#129 = CARTESIAN_POINT('',(-0.308484389322,0.187754398641,1.968036406908
));
#130 = CARTESIAN_POINT('',(-0.296528417577,0.206556183132,1.970392202108
));
#131 = CARTESIAN_POINT('',(-0.283161204796,0.224558631452,1.971125826488
));
#132 = CARTESIAN_POINT('',(-0.26846326773,0.241600839298,1.97015512156)
);
#133 = CARTESIAN_POINT('',(-0.252548873492,0.257533088929,1.96743245143)
);
#134 = CARTESIAN_POINT('',(-0.218962192386,0.286597004681,1.958582626182
));
#135 = CARTESIAN_POINT('',(-0.201331626054,0.299786600533,1.952530927477
));
#136 = CARTESIAN_POINT('',(-0.182816366674,0.311674166401,1.944801351109
));
#137 = CARTESIAN_POINT('',(-0.163572428986,0.322171894096,1.935435146072
));
#138 = CARTESIAN_POINT('',(-0.143764785401,0.331223823777,1.924511592176
));
#139 = CARTESIAN_POINT('',(-0.123559612003,0.338804212577,1.912142902792
));
#140 = CARTESIAN_POINT('',(-5.605525719612E-002,0.358985407672,
1.866991218857));
#141 = CARTESIAN_POINT('',(-7.799188662752E-003,0.365250944557,
1.828639709121));
#142 = CARTESIAN_POINT('',(3.976156860632E-002,0.363801816253,
1.785092192483));
#143 = CARTESIAN_POINT('',(8.524514257873E-002,0.3555083607,
1.738463426218));
#144 = CARTESIAN_POINT('',(0.127903559483,0.341242129632,1.690427777005)
);
#145 = CARTESIAN_POINT('',(0.167313627048,0.321697465364,1.642129103586)
);
#146 = CARTESIAN_POINT('',(0.243294570095,0.269765466271,1.540850257478)
);
#147 = CARTESIAN_POINT('',(0.278795728624,0.2362149622,1.488210288073));
#148 = CARTESIAN_POINT('',(0.309112768556,0.197193037118,1.437732734041)
);
#149 = CARTESIAN_POINT('',(0.333469567046,0.153173197648,1.39070793169)
);
#150 = CARTESIAN_POINT('',(0.350839054773,0.104801856978,1.348637118842)
);
#151 = CARTESIAN_POINT('',(0.36,5.316702148383E-002,1.313206333232));
#152 = CARTESIAN_POINT('',(0.36,-5.551115123126E-017,1.285946785334));
#153 = TOROIDAL_SURFACE('',#154,3.80487804878,2.19512195122);
#154 = AXIS2_PLACEMENT_3D('',#155,#156,#157);
#155 = CARTESIAN_POINT('',(3.75,-0.84512195122,6.03));
#156 = DIRECTION('',(0.E+000,1.,0.E+000));
#157 = DIRECTION('',(1.,0.E+000,0.E+000));
#158 = ADVANCED_FACE('',(#159,#179),#250,.T.);
#159 = FACE_BOUND('',#160,.T.);
#160 = EDGE_LOOP('',(#161,#162,#171,#178));
#161 = ORIENTED_EDGE('',*,*,#31,.T.);
#162 = ORIENTED_EDGE('',*,*,#163,.T.);
#163 = EDGE_CURVE('',#24,#164,#166,.T.);
#164 = VERTEX_POINT('',#165);
#165 = CARTESIAN_POINT('',(7.55487804878,-3.15,6.03));
#166 = CIRCLE('',#167,2.19512195122);
#167 = AXIS2_PLACEMENT_3D('',#168,#169,#170);
#168 = CARTESIAN_POINT('',(7.55487804878,-0.95487804878,6.03));
#169 = DIRECTION('',(0.E+000,0.E+000,-1.));
#170 = DIRECTION('',(1.,0.E+000,0.E+000));
#171 = ORIENTED_EDGE('',*,*,#172,.F.);
#172 = EDGE_CURVE('',#164,#164,#173,.T.);
#173 = CIRCLE('',#174,3.80487804878);
#174 = AXIS2_PLACEMENT_3D('',#175,#176,#177);
#175 = CARTESIAN_POINT('',(3.75,-3.15,6.03));
#176 = DIRECTION('',(0.E+000,-1.,0.E+000));
#177 = DIRECTION('',(1.,0.E+000,0.E+000));
#178 = ORIENTED_EDGE('',*,*,#163,.F.);
#179 = FACE_BOUND('',#180,.T.);
#180 = EDGE_LOOP('',(#181,#200));
#181 = ORIENTED_EDGE('',*,*,#182,.T.);
#182 = EDGE_CURVE('',#183,#185,#187,.T.);
#183 = VERTEX_POINT('',#184);
#184 = CARTESIAN_POINT('',(7.86,-1.8,1.894055016858));
#185 = VERTEX_POINT('',#186);
#186 = CARTESIAN_POINT('',(7.532533089999,-1.44147301628,1.443052228657)
);
#187 = B_SPLINE_CURVE_WITH_KNOTS('',6,(#188,#189,#190,#191,#192,#193,
#194,#195,#196,#197,#198,#199),.UNSPECIFIED.,.F.,.F.,(7,5,7),(
0.E+000,0.622458448231,1.),.UNSPECIFIED.);
#188 = CARTESIAN_POINT('',(7.86,-1.8,1.894055016858));
#189 = CARTESIAN_POINT('',(7.86,-1.743446811493,1.860796091508));
#190 = CARTESIAN_POINT('',(7.849339257036,-1.68808740646,1.820940087619)
);
#191 = CARTESIAN_POINT('',(7.828860564204,-1.635984321685,1.77643520956)
);
#192 = CARTESIAN_POINT('',(7.799607963047,-1.588769691135,1.728661766879
));
#193 = CARTESIAN_POINT('',(7.762680174694,-1.547821891437,1.678724808061
));
#194 = CARTESIAN_POINT('',(7.692955841438,-1.494271803685,1.596848144507
));
#195 = CARTESIAN_POINT('',(7.664271266843,-1.476871698486,1.565582218204
));
#196 = CARTESIAN_POINT('',(7.633504359371,-1.46258438128,1.534220652816)
);
#197 = CARTESIAN_POINT('',(7.600986860075,-1.451728702312,1.503071264275
));
#198 = CARTESIAN_POINT('',(7.56715107615,-1.444614286283,1.472524821829)
);
#199 = CARTESIAN_POINT('',(7.532533089999,-1.44147301628,1.443052228657)
);
#200 = ORIENTED_EDGE('',*,*,#201,.T.);
#201 = EDGE_CURVE('',#185,#183,#202,.T.);
#202 = B_SPLINE_CURVE_WITH_KNOTS('',6,(#203,#204,#205,#206,#207,#208,
#209,#210,#211,#212,#213,#214,#215,#216,#217,#218,#219,#220,#221,
#222,#223,#224,#225,#226,#227,#228,#229,#230,#231,#232,#233,#234,
#235,#236,#237,#238,#239,#240,#241,#242,#243,#244,#245,#246,#247,
#248,#249),.UNSPECIFIED.,.F.,.F.,(7,5,5,5,5,5,5,5,5,7),(0.E+000,
0.159460518584,0.246677108072,0.342249844085,0.393541037496,
0.551662050069,0.697832745421,0.826885864027,0.929396776614,1.),
.UNSPECIFIED.);
#203 = CARTESIAN_POINT('',(7.532533089999,-1.44147301628,1.443052228657)
);
#204 = CARTESIAN_POINT('',(7.486933146904,-1.437335232738,1.404229965408
));
#205 = CARTESIAN_POINT('',(7.439955632323,-1.440089521558,1.367253367408
));
#206 = CARTESIAN_POINT('',(7.392993038641,-1.450291916174,1.333347061218
));
#207 = CARTESIAN_POINT('',(7.347667799504,-1.468088841473,1.303825079807
));
#208 = CARTESIAN_POINT('',(7.305698605787,-1.493082652188,1.280054670003
));
#209 = CARTESIAN_POINT('',(7.24824316152,-1.54130734964,1.253744063594)
);
#210 = CARTESIAN_POINT('',(7.229374447475,-1.560205430129,1.24646499149)
);
#211 = CARTESIAN_POINT('',(7.212205466347,-1.580773851978,1.241380318194
));
#212 = CARTESIAN_POINT('',(7.19695694923,-1.602771647829,1.238616976458)
);
#213 = CARTESIAN_POINT('',(7.18379424268,-1.625907715027,1.238235285724)
);
#214 = CARTESIAN_POINT('',(7.160763641574,-1.676095631834,1.242366252529
));
#215 = CARTESIAN_POINT('',(7.151327911607,-1.703320070158,1.247352161826
));
#216 = CARTESIAN_POINT('',(7.144616617466,-1.731103132124,1.255130928326
));
#217 = CARTESIAN_POINT('',(7.140613452683,-1.759029057989,1.265548554835
));
#218 = CARTESIAN_POINT('',(7.139213226854,-1.786748878898,1.278380969494
));
#219 = CARTESIAN_POINT('',(7.14083955533,-1.828595129828,1.301430956108)
);
#220 = CARTESIAN_POINT('',(7.142115702583,-1.843070534715,1.310106087783
));
#221 = CARTESIAN_POINT('',(7.144077928285,-1.857364725505,1.319369080832
));
#222 = CARTESIAN_POINT('',(7.146701423126,-1.871441383276,1.329181357556
));
#223 = CARTESIAN_POINT('',(7.149960318162,-1.885269428786,1.339504368767
));
#224 = CARTESIAN_POINT('',(7.16575683848,-1.940603925882,1.383584863547)
);
#225 = CARTESIAN_POINT('',(7.183475467676,-1.979745520569,1.421348773533
));
#226 = CARTESIAN_POINT('',(7.206243208981,-2.015528963144,1.462531634249
));
#227 = CARTESIAN_POINT('',(7.233379255927,-2.047504995565,1.506129126948
));
#228 = CARTESIAN_POINT('',(7.264367767975,-2.075321386798,1.551246623732
));
#229 = CARTESIAN_POINT('',(7.330636112708,-2.119983571188,1.639216945422
));
#230 = CARTESIAN_POINT('',(7.365365306312,-2.137466526512,1.681917928217
));
#231 = CARTESIAN_POINT('',(7.402697879608,-2.150672849417,1.724384509877
));
#232 = CARTESIAN_POINT('',(7.442291161533,-2.159093320156,1.765725374113
));
#233 = CARTESIAN_POINT('',(7.483538523244,-2.162068551757,1.804650969812
));
#234 = CARTESIAN_POINT('',(7.562436102233,-2.156478964939,1.870802096694
));
#235 = CARTESIAN_POINT('',(7.59993422784,-2.149225316302,1.898857167499)
);
#236 = CARTESIAN_POINT('',(7.637072987684,-2.137018001741,1.92286308939)
);
#237 = CARTESIAN_POINT('',(7.672827764484,-2.119772222042,1.941837322077
));
#238 = CARTESIAN_POINT('',(7.706068361657,-2.097816364882,1.955227253719
));
#239 = CARTESIAN_POINT('',(7.759582939951,-2.051396526644,1.969252058984
));
#240 = CARTESIAN_POINT('',(7.781131515139,-2.028364970548,1.971947382333
));
#241 = CARTESIAN_POINT('',(7.8000863297,-2.003238427866,1.971126128695)
);
#242 = CARTESIAN_POINT('',(7.81616636344,-1.976511191705,1.967026447933)
);
#243 = CARTESIAN_POINT('',(7.82925902887,-1.948672303035,1.959982287274)
);
#244 = CARTESIAN_POINT('',(7.846308712356,-1.900520136367,1.9436910777)
);
#245 = CARTESIAN_POINT('',(7.851842203184,-1.880557672865,1.935810809455
));
#246 = CARTESIAN_POINT('',(7.855954230248,-1.8604073723,1.926803711988)
);
#247 = CARTESIAN_POINT('',(7.858663246451,-1.840193154263,1.916777343786
));
#248 = CARTESIAN_POINT('',(7.86,-1.820025459541,1.90583198791));
#249 = CARTESIAN_POINT('',(7.86,-1.8,1.894055016858));
#250 = TOROIDAL_SURFACE('',#251,3.80487804878,2.19512195122);
#251 = AXIS2_PLACEMENT_3D('',#252,#253,#254);
#252 = CARTESIAN_POINT('',(3.75,-0.95487804878,6.03));
#253 = DIRECTION('',(0.E+000,-1.,0.E+000));
#254 = DIRECTION('',(1.,0.E+000,0.E+000));
#255 = ADVANCED_FACE('',(#256),#259,.F.);
#256 = FACE_BOUND('',#257,.F.);
#257 = EDGE_LOOP('',(#258));
#258 = ORIENTED_EDGE('',*,*,#64,.T.);
#259 = PLANE('',#260);
#260 = AXIS2_PLACEMENT_3D('',#261,#262,#263);
#261 = CARTESIAN_POINT('',(3.75,1.35,6.03));
#262 = DIRECTION('',(-0.E+000,-1.,-0.E+000));
#263 = DIRECTION('',(0.E+000,0.E+000,-1.));
#264 = ADVANCED_FACE('',(#265),#285,.T.);
#265 = FACE_BOUND('',#266,.T.);
#266 = EDGE_LOOP('',(#267,#268,#276,#283,#284));
#267 = ORIENTED_EDGE('',*,*,#113,.T.);
#268 = ORIENTED_EDGE('',*,*,#269,.T.);
#269 = EDGE_CURVE('',#75,#270,#272,.T.);
#270 = VERTEX_POINT('',#271);
#271 = CARTESIAN_POINT('',(0.36,0.E+000,-2.856));
#272 = LINE('',#273,#274);
#273 = CARTESIAN_POINT('',(0.36,0.E+000,6.03));
#274 = VECTOR('',#275,1.);
#275 = DIRECTION('',(-0.E+000,-0.E+000,-1.));
#276 = ORIENTED_EDGE('',*,*,#277,.T.);
#277 = EDGE_CURVE('',#270,#270,#278,.T.);
#278 = CIRCLE('',#279,0.36);
#279 = AXIS2_PLACEMENT_3D('',#280,#281,#282);
#280 = CARTESIAN_POINT('',(0.E+000,0.E+000,-2.856));
#281 = DIRECTION('',(0.E+000,0.E+000,1.));
#282 = DIRECTION('',(1.,0.E+000,0.E+000));
#283 = ORIENTED_EDGE('',*,*,#269,.F.);
#284 = ORIENTED_EDGE('',*,*,#74,.T.);
#285 = CYLINDRICAL_SURFACE('',#286,0.36);
#286 = AXIS2_PLACEMENT_3D('',#287,#288,#289);
#287 = CARTESIAN_POINT('',(0.E+000,0.E+000,6.03));
#288 = DIRECTION('',(0.E+000,0.E+000,1.));
#289 = DIRECTION('',(1.,0.E+000,0.E+000));
#290 = ADVANCED_FACE('',(#291),#294,.T.);
#291 = FACE_BOUND('',#292,.T.);
#292 = EDGE_LOOP('',(#293));
#293 = ORIENTED_EDGE('',*,*,#172,.T.);
#294 = PLANE('',#295);
#295 = AXIS2_PLACEMENT_3D('',#296,#297,#298);
#296 = CARTESIAN_POINT('',(3.75,-3.15,6.03));
#297 = DIRECTION('',(-0.E+000,-1.,-0.E+000));
#298 = DIRECTION('',(0.E+000,0.E+000,-1.));
#299 = ADVANCED_FACE('',(#300),#320,.T.);
#300 = FACE_BOUND('',#301,.T.);
#301 = EDGE_LOOP('',(#302,#303,#311,#318,#319));
#302 = ORIENTED_EDGE('',*,*,#182,.F.);
#303 = ORIENTED_EDGE('',*,*,#304,.T.);
#304 = EDGE_CURVE('',#183,#305,#307,.T.);
#305 = VERTEX_POINT('',#306);
#306 = CARTESIAN_POINT('',(7.86,-1.8,-2.856));
#307 = LINE('',#308,#309);
#308 = CARTESIAN_POINT('',(7.86,-1.8,6.03));
#309 = VECTOR('',#310,1.);
#310 = DIRECTION('',(-0.E+000,-0.E+000,-1.));
#311 = ORIENTED_EDGE('',*,*,#312,.T.);
#312 = EDGE_CURVE('',#305,#305,#313,.T.);
#313 = CIRCLE('',#314,0.36);
#314 = AXIS2_PLACEMENT_3D('',#315,#316,#317);
#315 = CARTESIAN_POINT('',(7.5,-1.8,-2.856));
#316 = DIRECTION('',(4.311546871385E-030,3.04344485039E-030,1.));
#317 = DIRECTION('',(1.,1.217377940156E-030,-4.311546871385E-030));
#318 = ORIENTED_EDGE('',*,*,#304,.F.);
#319 = ORIENTED_EDGE('',*,*,#201,.F.);
#320 = CYLINDRICAL_SURFACE('',#321,0.36);
#321 = AXIS2_PLACEMENT_3D('',#322,#323,#324);
#322 = CARTESIAN_POINT('',(7.5,-1.8,6.03));
#323 = DIRECTION('',(0.E+000,0.E+000,1.));
#324 = DIRECTION('',(1.,0.E+000,0.E+000));
#325 = ADVANCED_FACE('',(#326),#346,.T.);
#326 = FACE_BOUND('',#327,.F.);
#327 = EDGE_LOOP('',(#328,#337,#338,#339));
#328 = ORIENTED_EDGE('',*,*,#329,.F.);
#329 = EDGE_CURVE('',#270,#330,#332,.T.);
#330 = VERTEX_POINT('',#331);
#331 = CARTESIAN_POINT('',(0.216,0.E+000,-3.));
#332 = CIRCLE('',#333,0.144);
#333 = AXIS2_PLACEMENT_3D('',#334,#335,#336);
#334 = CARTESIAN_POINT('',(0.216,0.E+000,-2.856));
#335 = DIRECTION('',(-0.E+000,1.,0.E+000));
#336 = DIRECTION('',(1.,0.E+000,0.E+000));
#337 = ORIENTED_EDGE('',*,*,#277,.T.);
#338 = ORIENTED_EDGE('',*,*,#329,.T.);
#339 = ORIENTED_EDGE('',*,*,#340,.F.);
#340 = EDGE_CURVE('',#330,#330,#341,.T.);
#341 = CIRCLE('',#342,0.216);
#342 = AXIS2_PLACEMENT_3D('',#343,#344,#345);
#343 = CARTESIAN_POINT('',(0.E+000,0.E+000,-3.));
#344 = DIRECTION('',(0.E+000,0.E+000,1.));
#345 = DIRECTION('',(1.,0.E+000,0.E+000));
#346 = TOROIDAL_SURFACE('',#347,0.216,0.144);
#347 = AXIS2_PLACEMENT_3D('',#348,#349,#350);
#348 = CARTESIAN_POINT('',(0.E+000,0.E+000,-2.856));
#349 = DIRECTION('',(-0.E+000,-0.E+000,-1.));
#350 = DIRECTION('',(1.,0.E+000,0.E+000));
#351 = ADVANCED_FACE('',(#352),#372,.T.);
#352 = FACE_BOUND('',#353,.F.);
#353 = EDGE_LOOP('',(#354,#363,#364,#365));
#354 = ORIENTED_EDGE('',*,*,#355,.F.);
#355 = EDGE_CURVE('',#305,#356,#358,.T.);
#356 = VERTEX_POINT('',#357);
#357 = CARTESIAN_POINT('',(7.716,-1.8,-3.));
#358 = CIRCLE('',#359,0.144);
#359 = AXIS2_PLACEMENT_3D('',#360,#361,#362);
#360 = CARTESIAN_POINT('',(7.716,-1.8,-2.856));
#361 = DIRECTION('',(-1.217377940156E-030,1.,-3.04344485039E-030));
#362 = DIRECTION('',(1.,1.217377940156E-030,-4.311546871385E-030));
#363 = ORIENTED_EDGE('',*,*,#312,.T.);
#364 = ORIENTED_EDGE('',*,*,#355,.T.);
#365 = ORIENTED_EDGE('',*,*,#366,.F.);
#366 = EDGE_CURVE('',#356,#356,#367,.T.);
#367 = CIRCLE('',#368,0.216);
#368 = AXIS2_PLACEMENT_3D('',#369,#370,#371);
#369 = CARTESIAN_POINT('',(7.5,-1.8,-3.));
#370 = DIRECTION('',(4.311546871385E-030,3.04344485039E-030,1.));
#371 = DIRECTION('',(1.,1.217377940156E-030,-4.311546871385E-030));
#372 = TOROIDAL_SURFACE('',#373,0.216,0.144);
#373 = AXIS2_PLACEMENT_3D('',#374,#375,#376);
#374 = CARTESIAN_POINT('',(7.5,-1.8,-2.856));
#375 = DIRECTION('',(-4.311546871385E-030,-3.04344485039E-030,-1.));
#376 = DIRECTION('',(1.,1.217377940156E-030,-4.311546871385E-030));
#377 = ADVANCED_FACE('',(#378),#381,.F.);
#378 = FACE_BOUND('',#379,.F.);
#379 = EDGE_LOOP('',(#380));
#380 = ORIENTED_EDGE('',*,*,#340,.T.);
#381 = PLANE('',#382);
#382 = AXIS2_PLACEMENT_3D('',#383,#384,#385);
#383 = CARTESIAN_POINT('',(-1.483767504926E-017,1.497958850874E-017,-3.)
);
#384 = DIRECTION('',(0.E+000,0.E+000,1.));
#385 = DIRECTION('',(1.,0.E+000,0.E+000));
#386 = ADVANCED_FACE('',(#387),#390,.F.);
#387 = FACE_BOUND('',#388,.F.);
#388 = EDGE_LOOP('',(#389));
#389 = ORIENTED_EDGE('',*,*,#366,.T.);
#390 = PLANE('',#391);
#391 = AXIS2_PLACEMENT_3D('',#392,#393,#394);
#392 = CARTESIAN_POINT('',(7.5,-1.8,-3.));
#393 = DIRECTION('',(4.311546871385E-030,3.04344485039E-030,1.));
#394 = DIRECTION('',(1.,0.E+000,-4.311546871385E-030));
#395 = ( GEOMETRIC_REPRESENTATION_CONTEXT(3)
GLOBAL_UNCERTAINTY_ASSIGNED_CONTEXT((#399)) GLOBAL_UNIT_ASSIGNED_CONTEXT
((#396,#397,#398)) REPRESENTATION_CONTEXT('Context #1',
'3D Context with UNIT and UNCERTAINTY') );
#396 = ( LENGTH_UNIT() NAMED_UNIT(*) SI_UNIT(.MILLI.,.METRE.) );
#397 = ( NAMED_UNIT(*) PLANE_ANGLE_UNIT() SI_UNIT($,.RADIAN.) );
#398 = ( NAMED_UNIT(*) SI_UNIT($,.STERADIAN.) SOLID_ANGLE_UNIT() );
#399 = UNCERTAINTY_MEASURE_WITH_UNIT(LENGTH_MEASURE(1.E-007),#396,
'distance_accuracy_value','confusion accuracy');
#400 = PRODUCT_RELATED_PRODUCT_CATEGORY('part',$,(#7));
#401 = MECHANICAL_DESIGN_GEOMETRIC_PRESENTATION_REPRESENTATION('',(#402,
#410,#417,#424,#431,#439,#446,#453,#460,#467,#474),#395);
#402 = STYLED_ITEM('color',(#403),#17);
#403 = PRESENTATION_STYLE_ASSIGNMENT((#404));
#404 = SURFACE_STYLE_USAGE(.BOTH.,#405);
#405 = SURFACE_SIDE_STYLE('',(#406));
#406 = SURFACE_STYLE_FILL_AREA(#407);
#407 = FILL_AREA_STYLE('',(#408));
#408 = FILL_AREA_STYLE_COLOUR('',#409);
#409 = COLOUR_RGB('',0.136999994516,0.402000010014,0.726999998093);
#410 = STYLED_ITEM('color',(#411),#50);
#411 = PRESENTATION_STYLE_ASSIGNMENT((#412));
#412 = SURFACE_STYLE_USAGE(.BOTH.,#413);
#413 = SURFACE_SIDE_STYLE('',(#414));
#414 = SURFACE_STYLE_FILL_AREA(#415);
#415 = FILL_AREA_STYLE('',(#416));
#416 = FILL_AREA_STYLE_COLOUR('',#409);
#417 = STYLED_ITEM('color',(#418),#158);
#418 = PRESENTATION_STYLE_ASSIGNMENT((#419));
#419 = SURFACE_STYLE_USAGE(.BOTH.,#420);
#420 = SURFACE_SIDE_STYLE('',(#421));
#421 = SURFACE_STYLE_FILL_AREA(#422);
#422 = FILL_AREA_STYLE('',(#423));
#423 = FILL_AREA_STYLE_COLOUR('',#409);
#424 = STYLED_ITEM('color',(#425),#255);
#425 = PRESENTATION_STYLE_ASSIGNMENT((#426));
#426 = SURFACE_STYLE_USAGE(.BOTH.,#427);
#427 = SURFACE_SIDE_STYLE('',(#428));
#428 = SURFACE_STYLE_FILL_AREA(#429);
#429 = FILL_AREA_STYLE('',(#430));
#430 = FILL_AREA_STYLE_COLOUR('',#409);
#431 = STYLED_ITEM('color',(#432),#264);
#432 = PRESENTATION_STYLE_ASSIGNMENT((#433));
#433 = SURFACE_STYLE_USAGE(.BOTH.,#434);
#434 = SURFACE_SIDE_STYLE('',(#435));
#435 = SURFACE_STYLE_FILL_AREA(#436);
#436 = FILL_AREA_STYLE('',(#437));
#437 = FILL_AREA_STYLE_COLOUR('',#438);
#438 = COLOUR_RGB('',0.824000000954,0.819999992847,0.78100001812);
#439 = STYLED_ITEM('color',(#440),#290);
#440 = PRESENTATION_STYLE_ASSIGNMENT((#441));
#441 = SURFACE_STYLE_USAGE(.BOTH.,#442);
#442 = SURFACE_SIDE_STYLE('',(#443));
#443 = SURFACE_STYLE_FILL_AREA(#444);
#444 = FILL_AREA_STYLE('',(#445));
#445 = FILL_AREA_STYLE_COLOUR('',#409);
#446 = STYLED_ITEM('color',(#447),#299);
#447 = PRESENTATION_STYLE_ASSIGNMENT((#448));
#448 = SURFACE_STYLE_USAGE(.BOTH.,#449);
#449 = SURFACE_SIDE_STYLE('',(#450));
#450 = SURFACE_STYLE_FILL_AREA(#451);
#451 = FILL_AREA_STYLE('',(#452));
#452 = FILL_AREA_STYLE_COLOUR('',#438);
#453 = STYLED_ITEM('color',(#454),#325);
#454 = PRESENTATION_STYLE_ASSIGNMENT((#455));
#455 = SURFACE_STYLE_USAGE(.BOTH.,#456);
#456 = SURFACE_SIDE_STYLE('',(#457));
#457 = SURFACE_STYLE_FILL_AREA(#458);
#458 = FILL_AREA_STYLE('',(#459));
#459 = FILL_AREA_STYLE_COLOUR('',#438);
#460 = STYLED_ITEM('color',(#461),#351);
#461 = PRESENTATION_STYLE_ASSIGNMENT((#462));
#462 = SURFACE_STYLE_USAGE(.BOTH.,#463);
#463 = SURFACE_SIDE_STYLE('',(#464));
#464 = SURFACE_STYLE_FILL_AREA(#465);
#465 = FILL_AREA_STYLE('',(#466));
#466 = FILL_AREA_STYLE_COLOUR('',#438);
#467 = STYLED_ITEM('color',(#468),#377);
#468 = PRESENTATION_STYLE_ASSIGNMENT((#469));
#469 = SURFACE_STYLE_USAGE(.BOTH.,#470);
#470 = SURFACE_SIDE_STYLE('',(#471));
#471 = SURFACE_STYLE_FILL_AREA(#472);
#472 = FILL_AREA_STYLE('',(#473));
#473 = FILL_AREA_STYLE_COLOUR('',#438);
#474 = STYLED_ITEM('color',(#475),#386);
#475 = PRESENTATION_STYLE_ASSIGNMENT((#476));
#476 = SURFACE_STYLE_USAGE(.BOTH.,#477);
#477 = SURFACE_SIDE_STYLE('',(#478));
#478 = SURFACE_STYLE_FILL_AREA(#479);
#479 = FILL_AREA_STYLE('',(#480));
#480 = FILL_AREA_STYLE_COLOUR('',#438);
ENDSEC;
END-ISO-10303-21;
