ISO-10303-21;
HEADER;
/* RV_Disc_D12mm_W3.9mm_P7.5mm.step 3D STEP model for use in ECAD systems
 * Copyright (C) 2018, kicad StepUp
 * 
 * This work is licensed under the [Creative Commons CC-BY-SA 4.0 License](https://creativecommons.org/licenses/by-sa/4.0/legalcode), 
 * with the following exception:
 * To the extent that the creation of electronic designs that use 'Licensed Material' can be considered to be 'Adapted Material', 
 * then the copyright holder waives article 3 of the license with respect to these designs and any generated files which use data provided 
 * as part of the 'Licensed Material'.
 * You are free to use the library data in your own projects without the obligation to share your project files under this or any other license agreement.
 * However, if you wish to redistribute these libraries, or parts thereof (including in modified form) as a collection then the exception above does not apply. 
 * Please refer to https://github.com/KiCad/kicad-packages3D/blob/master/LICENSE.md for further clarification of the exception.
 * Disclaimer of Warranties and Limitation of Liability.
 * These libraries are provided in the hope that they will be useful, but are provided without warranty of any kind, express or implied.
 * *USE 3D CAD DATA AT YOUR OWN RISK*
 * *DO NOT RELY UPON ANY INFORMATION FOUND HERE WITHOUT INDEPENDENT VERIFICATION.*
 * 
 */

FILE_DESCRIPTION(
/* description */ ('model of RV_Disc_D12mm_W3.9mm_P7.5mm'),
/* implementation_level */ '2;1');

FILE_NAME(
/* name */ 'RV_Disc_D12mm_W3.9mm_P7.5mm.step',
/* time_stamp */ '2018-11-11T20:33:32',
/* author */ ('kicad StepUp','ksu'),
/* organization */ ('FreeCAD'),
/* preprocessor_version */ 'OCC',
/* originating_system */ 'kicad StepUp',
/* authorisation */ '');

FILE_SCHEMA(('AUTOMOTIVE_DESIGN { 1 0 10303 214 1 1 1 1 }'));
ENDSEC;

DATA;
#1 = APPLICATION_PROTOCOL_DEFINITION('international standard',
'automotive_design',2000,#2);
#2 = APPLICATION_CONTEXT(
'core data for automotive mechanical design processes');
#3 = SHAPE_DEFINITION_REPRESENTATION(#4,#10);
#4 = PRODUCT_DEFINITION_SHAPE('','',#5);
#5 = PRODUCT_DEFINITION('design','',#6,#9);
#6 = PRODUCT_DEFINITION_FORMATION('','',#7);
#7 = PRODUCT('RV_Disc_D12mm_W39mm_P75mm','RV_Disc_D12mm_W39mm_P75mm','',
(#8));
#8 = PRODUCT_CONTEXT('',#2,'mechanical');
#9 = PRODUCT_DEFINITION_CONTEXT('part definition',#2,'design');
#10 = ADVANCED_BREP_SHAPE_REPRESENTATION('',(#11,#15),#404);
#11 = AXIS2_PLACEMENT_3D('',#12,#13,#14);
#12 = CARTESIAN_POINT('',(0.E+000,0.E+000,0.E+000));
#13 = DIRECTION('',(0.E+000,0.E+000,1.));
#14 = DIRECTION('',(1.,0.E+000,-0.E+000));
#15 = MANIFOLD_SOLID_BREP('',#16);
#16 = CLOSED_SHELL('',(#17,#50,#152,#264,#273,#299,#308,#334,#360,#386,
#395));
#17 = ADVANCED_FACE('',(#18),#45,.T.);
#18 = FACE_BOUND('',#19,.F.);
#19 = EDGE_LOOP('',(#20,#30,#37,#38));
#20 = ORIENTED_EDGE('',*,*,#21,.T.);
#21 = EDGE_CURVE('',#22,#24,#26,.T.);
#22 = VERTEX_POINT('',#23);
#23 = CARTESIAN_POINT('',(9.75,-0.65243902439,6.03));
#24 = VERTEX_POINT('',#25);
#25 = CARTESIAN_POINT('',(9.75,-0.74756097561,6.03));
#26 = LINE('',#27,#28);
#27 = CARTESIAN_POINT('',(9.75,1.25,6.03));
#28 = VECTOR('',#29,1.);
#29 = DIRECTION('',(0.E+000,-1.,0.E+000));
#30 = ORIENTED_EDGE('',*,*,#31,.T.);
#31 = EDGE_CURVE('',#24,#24,#32,.T.);
#32 = CIRCLE('',#33,6.);
#33 = AXIS2_PLACEMENT_3D('',#34,#35,#36);
#34 = CARTESIAN_POINT('',(3.75,-0.74756097561,6.03));
#35 = DIRECTION('',(0.E+000,-1.,0.E+000));
#36 = DIRECTION('',(1.,0.E+000,0.E+000));
#37 = ORIENTED_EDGE('',*,*,#21,.F.);
#38 = ORIENTED_EDGE('',*,*,#39,.F.);
#39 = EDGE_CURVE('',#22,#22,#40,.T.);
#40 = CIRCLE('',#41,6.);
#41 = AXIS2_PLACEMENT_3D('',#42,#43,#44);
#42 = CARTESIAN_POINT('',(3.75,-0.65243902439,6.03));
#43 = DIRECTION('',(0.E+000,-1.,0.E+000));
#44 = DIRECTION('',(1.,0.E+000,0.E+000));
#45 = CYLINDRICAL_SURFACE('',#46,6.);
#46 = AXIS2_PLACEMENT_3D('',#47,#48,#49);
#47 = CARTESIAN_POINT('',(3.75,1.25,6.03));
#48 = DIRECTION('',(0.E+000,1.,0.E+000));
#49 = DIRECTION('',(1.,0.E+000,0.E+000));
#50 = ADVANCED_FACE('',(#51,#71),#147,.T.);
#51 = FACE_BOUND('',#52,.F.);
#52 = EDGE_LOOP('',(#53,#54,#63,#70));
#53 = ORIENTED_EDGE('',*,*,#39,.T.);
#54 = ORIENTED_EDGE('',*,*,#55,.T.);
#55 = EDGE_CURVE('',#22,#56,#58,.T.);
#56 = VERTEX_POINT('',#57);
#57 = CARTESIAN_POINT('',(7.84756097561,1.25,6.03));
#58 = CIRCLE('',#59,1.90243902439);
#59 = AXIS2_PLACEMENT_3D('',#60,#61,#62);
#60 = CARTESIAN_POINT('',(7.84756097561,-0.65243902439,6.03));
#61 = DIRECTION('',(0.E+000,0.E+000,1.));
#62 = DIRECTION('',(1.,0.E+000,0.E+000));
#63 = ORIENTED_EDGE('',*,*,#64,.F.);
#64 = EDGE_CURVE('',#56,#56,#65,.T.);
#65 = CIRCLE('',#66,4.09756097561);
#66 = AXIS2_PLACEMENT_3D('',#67,#68,#69);
#67 = CARTESIAN_POINT('',(3.75,1.25,6.03));
#68 = DIRECTION('',(0.E+000,-1.,0.E+000));
#69 = DIRECTION('',(1.,0.E+000,0.E+000));
#70 = ORIENTED_EDGE('',*,*,#55,.F.);
#71 = FACE_BOUND('',#72,.F.);
#72 = EDGE_LOOP('',(#73,#112));
#73 = ORIENTED_EDGE('',*,*,#74,.T.);
#74 = EDGE_CURVE('',#75,#77,#79,.T.);
#75 = VERTEX_POINT('',#76);
#76 = CARTESIAN_POINT('',(0.36,0.E+000,1.219936537451));
#77 = VERTEX_POINT('',#78);
#78 = CARTESIAN_POINT('',(-0.347494680211,-9.406086978635E-002,
1.762437407058));
#79 = B_SPLINE_CURVE_WITH_KNOTS('',7,(#80,#81,#82,#83,#84,#85,#86,#87,
#88,#89,#90,#91,#92,#93,#94,#95,#96,#97,#98,#99,#100,#101,#102,#103,
#104,#105,#106,#107,#108,#109,#110,#111),.UNSPECIFIED.,.F.,.F.,(8,6,
6,6,6,8),(0.E+000,0.126742115514,0.289697742026,0.379312165496,
0.736573754474,1.),.UNSPECIFIED.);
#80 = CARTESIAN_POINT('',(0.36,-1.665334536938E-016,1.219936537451));
#81 = CARTESIAN_POINT('',(0.36,-1.856619079294E-002,1.211643939207));
#82 = CARTESIAN_POINT('',(0.358882918081,-3.728866634623E-002,
1.204386306374));
#83 = CARTESIAN_POINT('',(0.356614835278,-5.608114657471E-002,
1.198224470996));
#84 = CARTESIAN_POINT('',(0.353170943898,-7.484646113466E-002,
1.193211242219));
#85 = CARTESIAN_POINT('',(0.348539112457,-9.347908104394E-002,
1.189387805236));
#86 = CARTESIAN_POINT('',(0.342723450606,-0.111867650302,1.186780120236)
);
#87 = CARTESIAN_POINT('',(0.326779194328,-0.153078985604,1.183614849485)
);
#88 = CARTESIAN_POINT('',(0.315890411986,-0.175674816309,1.183855384518)
);
#89 = CARTESIAN_POINT('',(0.303131691979,-0.197436323677,1.186134981557)
);
#90 = CARTESIAN_POINT('',(0.288599871088,-0.218135633876,1.190416122489)
);
#91 = CARTESIAN_POINT('',(0.272428847452,-0.237570659365,1.196617109313)
);
#92 = CARTESIAN_POINT('',(0.254779970076,-0.25557007308,1.204623457468)
);
#93 = CARTESIAN_POINT('',(0.225412579311,-0.281032671637,1.219620333289)
);
#94 = CARTESIAN_POINT('',(0.214598899971,-0.289592737822,1.225446829188)
);
#95 = CARTESIAN_POINT('',(0.203419999649,-0.297656489246,1.231756881438)
);
#96 = CARTESIAN_POINT('',(0.191905703036,-0.305204835132,1.238527062789)
);
#97 = CARTESIAN_POINT('',(0.180086709365,-0.312221465308,1.245732856117)
);
#98 = CARTESIAN_POINT('',(0.167994251592,-0.318692729664,1.253349096367)
);
#99 = CARTESIAN_POINT('',(0.10648640293,-0.348187723368,1.293248881562)
);
#100 = CARTESIAN_POINT('',(5.325104756202E-002,-0.363026796311,
1.331407135718));
#101 = CARTESIAN_POINT('',(-1.719330840098E-003,-0.368091676476,
1.374055223876));
#102 = CARTESIAN_POINT('',(-5.599604324375E-002,-0.363487766865,
1.419144720957));
#103 = CARTESIAN_POINT('',(-0.107642891581,-0.350020380109,
1.465109062195));
#104 = CARTESIAN_POINT('',(-0.15524712258,-0.328769189727,1.510782355129
));
#105 = CARTESIAN_POINT('',(-0.229138039781,-0.280186292211,
1.588157336396));
#106 = CARTESIAN_POINT('',(-0.257769276189,-0.255897989773,
1.620409023416));
#107 = CARTESIAN_POINT('',(-0.283277013871,-0.228339023948,
1.651760544093));
#108 = CARTESIAN_POINT('',(-0.305306216719,-0.197922795801,
1.681931016289));
#109 = CARTESIAN_POINT('',(-0.323538051831,-0.165085818595,
1.710643535389));
#110 = CARTESIAN_POINT('',(-0.337686452333,-0.130295990913,
1.737596911569));
#111 = CARTESIAN_POINT('',(-0.347494680211,-9.406086978635E-002,
1.762437407058));
#112 = ORIENTED_EDGE('',*,*,#113,.T.);
#113 = EDGE_CURVE('',#77,#75,#114,.T.);
#114 = B_SPLINE_CURVE_WITH_KNOTS('',7,(#115,#116,#117,#118,#119,#120,
#121,#122,#123,#124,#125,#126,#127,#128,#129,#130,#131,#132,#133,
#134,#135,#136,#137,#138,#139,#140,#141,#142,#143,#144,#145,#146),
.UNSPECIFIED.,.F.,.F.,(8,6,6,6,6,8),(0.E+000,0.152344424421,
0.32689137097,0.442627468296,0.696068599288,1.),.UNSPECIFIED.);
#115 = CARTESIAN_POINT('',(-0.347494680211,-9.406086978635E-002,
1.762437407058));
#116 = CARTESIAN_POINT('',(-0.354351713037,-6.872852452348E-002,
1.779803652531));
#117 = CARTESIAN_POINT('',(-0.359085998349,-4.269562315571E-002,
1.79613323205));
#118 = CARTESIAN_POINT('',(-0.361611875888,-1.613619106444E-002,
1.811305895925));
#119 = CARTESIAN_POINT('',(-0.361848716489,1.075743692456E-002,
1.825183178183));
#120 = CARTESIAN_POINT('',(-0.359728254937,3.776997452805E-002,
1.837605370718));
#121 = CARTESIAN_POINT('',(-0.355204014199,6.46624950959E-002,
1.848393694074));
#122 = CARTESIAN_POINT('',(-0.340310025345,0.121552903535,1.867628035701
));
#123 = CARTESIAN_POINT('',(-0.329182525499,0.15143901469,1.875505823693)
);
#124 = CARTESIAN_POINT('',(-0.314864296307,0.180422358956,1.880696156301
));
#125 = CARTESIAN_POINT('',(-0.297411015575,0.208044775753,1.882889548375
));
#126 = CARTESIAN_POINT('',(-0.276991914458,0.23382322373,1.88179932419)
);
#127 = CARTESIAN_POINT('',(-0.253912010963,0.257295813425,1.877229980608
));
#128 = CARTESIAN_POINT('',(-0.21184096439,0.291881676049,1.863836498691)
);
#129 = CARTESIAN_POINT('',(-0.194089533488,0.304496812195,1.856964004645
));
#130 = CARTESIAN_POINT('',(-0.175487029177,0.315830150498,1.84855463457)
);
#131 = CARTESIAN_POINT('',(-0.156176071691,0.325799518607,1.838638095411
));
#132 = CARTESIAN_POINT('',(-0.136309460691,0.334348551526,1.827277052252
));
#133 = CARTESIAN_POINT('',(-0.116044329767,0.341447150277,1.814566004851
));
#134 = CARTESIAN_POINT('',(-5.062742516179E-002,0.359453010843,
1.770113192356));
#135 = CARTESIAN_POINT('',(-4.559220777133E-003,0.364840591113,
1.733725831187));
#136 = CARTESIAN_POINT('',(4.091528547857E-002,0.36318532732,
1.692845215703));
#137 = CARTESIAN_POINT('',(8.446340770888E-002,0.355229337553,
1.649332254318));
#138 = CARTESIAN_POINT('',(0.125378205771,0.341786881766,1.604720512262)
);
#139 = CARTESIAN_POINT('',(0.163288858771,0.323508751116,1.560030314928)
);
#140 = CARTESIAN_POINT('',(0.239498003507,0.273342196291,1.463107278102)
);
#141 = CARTESIAN_POINT('',(0.276205997281,0.23957488748,1.411351741787)
);
#142 = CARTESIAN_POINT('',(0.307532294216,0.200108813096,1.362077261761)
);
#143 = CARTESIAN_POINT('',(0.332683592033,0.15545748886,1.316669283077)
);
#144 = CARTESIAN_POINT('',(0.350593167809,0.106316692908,1.276726381366)
);
#145 = CARTESIAN_POINT('',(0.36,5.387578379619E-002,1.244000182767));
#146 = CARTESIAN_POINT('',(0.36,-1.52655665886E-016,1.219936537451));
#147 = TOROIDAL_SURFACE('',#148,4.09756097561,1.90243902439);
#148 = AXIS2_PLACEMENT_3D('',#149,#150,#151);
#149 = CARTESIAN_POINT('',(3.75,-0.65243902439,6.03));
#150 = DIRECTION('',(0.E+000,1.,0.E+000));
#151 = DIRECTION('',(1.,0.E+000,0.E+000));
#152 = ADVANCED_FACE('',(#153,#173),#259,.T.);
#153 = FACE_BOUND('',#154,.T.);
#154 = EDGE_LOOP('',(#155,#156,#165,#172));
#155 = ORIENTED_EDGE('',*,*,#31,.T.);
#156 = ORIENTED_EDGE('',*,*,#157,.T.);
#157 = EDGE_CURVE('',#24,#158,#160,.T.);
#158 = VERTEX_POINT('',#159);
#159 = CARTESIAN_POINT('',(7.84756097561,-2.65,6.03));
#160 = CIRCLE('',#161,1.90243902439);
#161 = AXIS2_PLACEMENT_3D('',#162,#163,#164);
#162 = CARTESIAN_POINT('',(7.84756097561,-0.74756097561,6.03));
#163 = DIRECTION('',(0.E+000,0.E+000,-1.));
#164 = DIRECTION('',(1.,0.E+000,0.E+000));
#165 = ORIENTED_EDGE('',*,*,#166,.F.);
#166 = EDGE_CURVE('',#158,#158,#167,.T.);
#167 = CIRCLE('',#168,4.09756097561);
#168 = AXIS2_PLACEMENT_3D('',#169,#170,#171);
#169 = CARTESIAN_POINT('',(3.75,-2.65,6.03));
#170 = DIRECTION('',(0.E+000,-1.,0.E+000));
#171 = DIRECTION('',(1.,0.E+000,0.E+000));
#172 = ORIENTED_EDGE('',*,*,#157,.F.);
#173 = FACE_BOUND('',#174,.T.);
#174 = EDGE_LOOP('',(#175,#194));
#175 = ORIENTED_EDGE('',*,*,#176,.T.);
#176 = EDGE_CURVE('',#177,#179,#181,.T.);
#177 = VERTEX_POINT('',#178);
#178 = CARTESIAN_POINT('',(7.86,-1.4,1.818502580584));
#179 = VERTEX_POINT('',#180);
#180 = CARTESIAN_POINT('',(7.645763313406,-1.070829745474,1.503213708343
));
#181 = B_SPLINE_CURVE_WITH_KNOTS('',6,(#182,#183,#184,#185,#186,#187,
#188,#189,#190,#191,#192,#193),.UNSPECIFIED.,.F.,.F.,(7,5,7),(
0.E+000,0.641065986457,1.),.UNSPECIFIED.);
#182 = CARTESIAN_POINT('',(7.86,-1.4,1.818502580584));
#183 = CARTESIAN_POINT('',(7.86,-1.354682096003,1.795384493317));
#184 = CARTESIAN_POINT('',(7.8531543067,-1.30997289418,1.768154151993));
#185 = CARTESIAN_POINT('',(7.83980762885,-1.266990105293,1.737651053306)
);
#186 = CARTESIAN_POINT('',(7.820446759809,-1.226687978456,1.704522239787
));
#187 = CARTESIAN_POINT('',(7.795622759319,-1.189888228488,1.669291872503
));
#188 = CARTESIAN_POINT('',(7.749315957628,-1.139136716642,1.611842807346
));
#189 = CARTESIAN_POINT('',(7.731174457293,-1.122261258602,1.590725879476
));
#190 = CARTESIAN_POINT('',(7.711620753394,-1.106861011482,1.569202927518
));
#191 = CARTESIAN_POINT('',(7.690774447256,-1.093069705355,1.547369277859
));
#192 = CARTESIAN_POINT('',(7.668770518634,-1.081017805969,1.525331484138
));
#193 = CARTESIAN_POINT('',(7.645763313406,-1.070829745474,1.503213708343
));
#194 = ORIENTED_EDGE('',*,*,#195,.T.);
#195 = EDGE_CURVE('',#179,#177,#196,.T.);
#196 = B_SPLINE_CURVE_WITH_KNOTS('',7,(#197,#198,#199,#200,#201,#202,
#203,#204,#205,#206,#207,#208,#209,#210,#211,#212,#213,#214,#215,
#216,#217,#218,#219,#220,#221,#222,#223,#224,#225,#226,#227,#228,
#229,#230,#231,#232,#233,#234,#235,#236,#237,#238,#239,#240,#241,
#242,#243,#244,#245,#246,#247,#248,#249,#250,#251,#252,#253,#254,
#255,#256,#257,#258),.UNSPECIFIED.,.F.,.F.,(8,6,6,6,6,6,6,6,6,6,8),(
0.E+000,0.170769434843,0.219666155891,0.30654268513,0.395812766563,
0.44337430748,0.583790767022,0.714286010499,0.832664990969,
0.930865156286,1.),.UNSPECIFIED.);
#197 = CARTESIAN_POINT('',(7.645763313406,-1.070829745474,1.503213708343
));
#198 = CARTESIAN_POINT('',(7.605487123849,-1.052994625925,1.464494545293
));
#199 = CARTESIAN_POINT('',(7.562114085059,-1.040664907272,1.425433591486
));
#200 = CARTESIAN_POINT('',(7.516521776395,-1.03456827956,1.386782338426)
);
#201 = CARTESIAN_POINT('',(7.469830089386,-1.035273495341,1.349453587698
));
#202 = CARTESIAN_POINT('',(7.423367122691,-1.043076256882,1.314523098276
));
#203 = CARTESIAN_POINT('',(7.378602576813,-1.057876928956,1.283206687678
));
#204 = CARTESIAN_POINT('',(7.32499070739,-1.085117593121,1.248950345258)
);
#205 = CARTESIAN_POINT('',(7.313301345186,-1.09170840593,1.241703652464)
);
#206 = CARTESIAN_POINT('',(7.301885594322,-1.098815201409,1.234859136596
));
#207 = CARTESIAN_POINT('',(7.290772469541,-1.106424442637,1.228440122998
));
#208 = CARTESIAN_POINT('',(7.279990467432,-1.114520116236,1.222469280852
));
#209 = CARTESIAN_POINT('',(7.269567240525,-1.12308361484,1.216968200099)
);
#210 = CARTESIAN_POINT('',(7.241694457502,-1.1481020128,1.203053336145)
);
#211 = CARTESIAN_POINT('',(7.225072905455,-1.165522314955,1.19569457587)
);
#212 = CARTESIAN_POINT('',(7.209818963931,-1.184231994666,1.189996726984
));
#213 = CARTESIAN_POINT('',(7.19607107747,-1.204078993798,1.186056815657)
);
#214 = CARTESIAN_POINT('',(7.183944196798,-1.224885848144,1.183943870768
));
#215 = CARTESIAN_POINT('',(7.173522189151,-1.246453808125,1.183689939906
));
#216 = CARTESIAN_POINT('',(7.155939385727,-1.291289354603,1.186916109321
));
#217 = CARTESIAN_POINT('',(7.148873582986,-1.314594684903,1.190499805311
));
#218 = CARTESIAN_POINT('',(7.143703520012,-1.338251913239,1.196019751705
));
#219 = CARTESIAN_POINT('',(7.140428341656,-1.362036263263,1.203414929506
));
#220 = CARTESIAN_POINT('',(7.139007803685,-1.385742915937,1.212588065632
));
#221 = CARTESIAN_POINT('',(7.139374509182,-1.409193674152,1.223417870306
));
#222 = CARTESIAN_POINT('',(7.142550015376,-1.444513461614,1.242352820816
));
#223 = CARTESIAN_POINT('',(7.144137869839,-1.456675600565,1.24936746603)
);
#224 = CARTESIAN_POINT('',(7.146197542519,-1.468700852569,1.256795532467
));
#225 = CARTESIAN_POINT('',(7.148715812175,-1.48056932512,1.264616742937)
);
#226 = CARTESIAN_POINT('',(7.151678914319,-1.492263231169,1.27281050199)
);
#227 = CARTESIAN_POINT('',(7.155072962663,-1.503766727369,1.281356263125
));
#228 = CARTESIAN_POINT('',(7.170136831981,-1.548423987765,1.316443429075
));
#229 = CARTESIAN_POINT('',(7.185022182005,-1.579985471503,1.345534206139
));
#230 = CARTESIAN_POINT('',(7.203191483624,-1.609412599926,1.376999910917
));
#231 = CARTESIAN_POINT('',(7.224318139932,-1.636454515788,1.410344464535
));
#232 = CARTESIAN_POINT('',(7.248121093125,-1.660908762423,1.44509654437)
);
#233 = CARTESIAN_POINT('',(7.274369549821,-1.682579161336,1.480801296225
));
#234 = CARTESIAN_POINT('',(7.32935525202,-1.718562884034,1.550620300864)
);
#235 = CARTESIAN_POINT('',(7.357751438298,-1.733265601279,1.584625377512
));
#236 = CARTESIAN_POINT('',(7.387922933821,-1.745178811206,1.6186629397)
);
#237 = CARTESIAN_POINT('',(7.419706517884,-1.754054889169,1.652300653441
));
#238 = CARTESIAN_POINT('',(7.452849391448,-1.759578163371,1.684968056167
));
#239 = CARTESIAN_POINT('',(7.486964825822,-1.761424069019,1.715983031748
));
#240 = CARTESIAN_POINT('',(7.552837558215,-1.757482108233,1.770659265488
));
#241 = CARTESIAN_POINT('',(7.584491688129,-1.752388956553,1.794712685296
));
#242 = CARTESIAN_POINT('',(7.615963737539,-1.743920655839,1.816224695616
));
#243 = CARTESIAN_POINT('',(7.646709080429,-1.732037577057,1.834696008736
));
#244 = CARTESIAN_POINT('',(7.676169349524,-1.716838996029,1.849785371976
));
#245 = CARTESIAN_POINT('',(7.703815258932,-1.698568917619,1.861336699277
));
#246 = CARTESIAN_POINT('',(7.750266256865,-1.6602167979,1.876022350685)
);
#247 = CARTESIAN_POINT('',(7.769780706123,-1.640969752307,1.880257645263
));
#248 = CARTESIAN_POINT('',(7.787492656542,-1.620079891197,1.882074136621
));
#249 = CARTESIAN_POINT('',(7.803211667503,-1.597806588478,1.881566855063
));
#250 = CARTESIAN_POINT('',(7.816813292937,-1.57442601744,1.878883391488)
);
#251 = CARTESIAN_POINT('',(7.828232162,-1.550210812737,1.874194739609));
#252 = CARTESIAN_POINT('',(7.843934578059,-1.507961930065,1.863084733176
));
#253 = CARTESIAN_POINT('',(7.84933058836,-1.490217578473,1.857586295722)
);
#254 = CARTESIAN_POINT('',(7.85362860245,-1.472270108258,1.851239295486)
);
#255 = CARTESIAN_POINT('',(7.856831652761,-1.454201022287,1.844102723233
));
#256 = CARTESIAN_POINT('',(7.858950198038,-1.436086769093,1.836233309887
));
#257 = CARTESIAN_POINT('',(7.86,-1.417998195624,1.827684025894));
#258 = CARTESIAN_POINT('',(7.86,-1.4,1.818502580584));
#259 = TOROIDAL_SURFACE('',#260,4.09756097561,1.90243902439);
#260 = AXIS2_PLACEMENT_3D('',#261,#262,#263);
#261 = CARTESIAN_POINT('',(3.75,-0.74756097561,6.03));
#262 = DIRECTION('',(0.E+000,-1.,0.E+000));
#263 = DIRECTION('',(1.,0.E+000,0.E+000));
#264 = ADVANCED_FACE('',(#265),#268,.F.);
#265 = FACE_BOUND('',#266,.F.);
#266 = EDGE_LOOP('',(#267));
#267 = ORIENTED_EDGE('',*,*,#64,.T.);
#268 = PLANE('',#269);
#269 = AXIS2_PLACEMENT_3D('',#270,#271,#272);
#270 = CARTESIAN_POINT('',(3.75,1.25,6.03));
#271 = DIRECTION('',(-0.E+000,-1.,-0.E+000));
#272 = DIRECTION('',(0.E+000,0.E+000,-1.));
#273 = ADVANCED_FACE('',(#274),#294,.T.);
#274 = FACE_BOUND('',#275,.T.);
#275 = EDGE_LOOP('',(#276,#277,#285,#292,#293));
#276 = ORIENTED_EDGE('',*,*,#113,.T.);
#277 = ORIENTED_EDGE('',*,*,#278,.T.);
#278 = EDGE_CURVE('',#75,#279,#281,.T.);
#279 = VERTEX_POINT('',#280);
#280 = CARTESIAN_POINT('',(0.36,0.E+000,-2.856));
#281 = LINE('',#282,#283);
#282 = CARTESIAN_POINT('',(0.36,0.E+000,6.03));
#283 = VECTOR('',#284,1.);
#284 = DIRECTION('',(-0.E+000,-0.E+000,-1.));
#285 = ORIENTED_EDGE('',*,*,#286,.T.);
#286 = EDGE_CURVE('',#279,#279,#287,.T.);
#287 = CIRCLE('',#288,0.36);
#288 = AXIS2_PLACEMENT_3D('',#289,#290,#291);
#289 = CARTESIAN_POINT('',(0.E+000,0.E+000,-2.856));
#290 = DIRECTION('',(0.E+000,0.E+000,1.));
#291 = DIRECTION('',(1.,0.E+000,0.E+000));
#292 = ORIENTED_EDGE('',*,*,#278,.F.);
#293 = ORIENTED_EDGE('',*,*,#74,.T.);
#294 = CYLINDRICAL_SURFACE('',#295,0.36);
#295 = AXIS2_PLACEMENT_3D('',#296,#297,#298);
#296 = CARTESIAN_POINT('',(0.E+000,0.E+000,6.03));
#297 = DIRECTION('',(0.E+000,0.E+000,1.));
#298 = DIRECTION('',(1.,0.E+000,0.E+000));
#299 = ADVANCED_FACE('',(#300),#303,.T.);
#300 = FACE_BOUND('',#301,.T.);
#301 = EDGE_LOOP('',(#302));
#302 = ORIENTED_EDGE('',*,*,#166,.T.);
#303 = PLANE('',#304);
#304 = AXIS2_PLACEMENT_3D('',#305,#306,#307);
#305 = CARTESIAN_POINT('',(3.75,-2.65,6.03));
#306 = DIRECTION('',(-0.E+000,-1.,-0.E+000));
#307 = DIRECTION('',(0.E+000,0.E+000,-1.));
#308 = ADVANCED_FACE('',(#309),#329,.T.);
#309 = FACE_BOUND('',#310,.T.);
#310 = EDGE_LOOP('',(#311,#312,#320,#327,#328));
#311 = ORIENTED_EDGE('',*,*,#176,.F.);
#312 = ORIENTED_EDGE('',*,*,#313,.T.);
#313 = EDGE_CURVE('',#177,#314,#316,.T.);
#314 = VERTEX_POINT('',#315);
#315 = CARTESIAN_POINT('',(7.86,-1.4,-2.856));
#316 = LINE('',#317,#318);
#317 = CARTESIAN_POINT('',(7.86,-1.4,6.03));
#318 = VECTOR('',#319,1.);
#319 = DIRECTION('',(-0.E+000,-0.E+000,-1.));
#320 = ORIENTED_EDGE('',*,*,#321,.T.);
#321 = EDGE_CURVE('',#314,#314,#322,.T.);
#322 = CIRCLE('',#323,0.36);
#323 = AXIS2_PLACEMENT_3D('',#324,#325,#326);
#324 = CARTESIAN_POINT('',(7.5,-1.4,-2.856));
#325 = DIRECTION('',(4.311546871385E-030,-0.E+000,1.));
#326 = DIRECTION('',(1.,0.E+000,-4.311546871385E-030));
#327 = ORIENTED_EDGE('',*,*,#313,.F.);
#328 = ORIENTED_EDGE('',*,*,#195,.F.);
#329 = CYLINDRICAL_SURFACE('',#330,0.36);
#330 = AXIS2_PLACEMENT_3D('',#331,#332,#333);
#331 = CARTESIAN_POINT('',(7.5,-1.4,6.03));
#332 = DIRECTION('',(0.E+000,0.E+000,1.));
#333 = DIRECTION('',(1.,0.E+000,0.E+000));
#334 = ADVANCED_FACE('',(#335),#355,.T.);
#335 = FACE_BOUND('',#336,.F.);
#336 = EDGE_LOOP('',(#337,#346,#347,#348));
#337 = ORIENTED_EDGE('',*,*,#338,.F.);
#338 = EDGE_CURVE('',#279,#339,#341,.T.);
#339 = VERTEX_POINT('',#340);
#340 = CARTESIAN_POINT('',(0.216,0.E+000,-3.));
#341 = CIRCLE('',#342,0.144);
#342 = AXIS2_PLACEMENT_3D('',#343,#344,#345);
#343 = CARTESIAN_POINT('',(0.216,0.E+000,-2.856));
#344 = DIRECTION('',(-0.E+000,1.,0.E+000));
#345 = DIRECTION('',(1.,0.E+000,0.E+000));
#346 = ORIENTED_EDGE('',*,*,#286,.T.);
#347 = ORIENTED_EDGE('',*,*,#338,.T.);
#348 = ORIENTED_EDGE('',*,*,#349,.F.);
#349 = EDGE_CURVE('',#339,#339,#350,.T.);
#350 = CIRCLE('',#351,0.216);
#351 = AXIS2_PLACEMENT_3D('',#352,#353,#354);
#352 = CARTESIAN_POINT('',(0.E+000,0.E+000,-3.));
#353 = DIRECTION('',(0.E+000,0.E+000,1.));
#354 = DIRECTION('',(1.,0.E+000,0.E+000));
#355 = TOROIDAL_SURFACE('',#356,0.216,0.144);
#356 = AXIS2_PLACEMENT_3D('',#357,#358,#359);
#357 = CARTESIAN_POINT('',(0.E+000,0.E+000,-2.856));
#358 = DIRECTION('',(-0.E+000,-0.E+000,-1.));
#359 = DIRECTION('',(1.,0.E+000,0.E+000));
#360 = ADVANCED_FACE('',(#361),#381,.T.);
#361 = FACE_BOUND('',#362,.F.);
#362 = EDGE_LOOP('',(#363,#372,#373,#374));
#363 = ORIENTED_EDGE('',*,*,#364,.F.);
#364 = EDGE_CURVE('',#314,#365,#367,.T.);
#365 = VERTEX_POINT('',#366);
#366 = CARTESIAN_POINT('',(7.716,-1.4,-3.));
#367 = CIRCLE('',#368,0.144);
#368 = AXIS2_PLACEMENT_3D('',#369,#370,#371);
#369 = CARTESIAN_POINT('',(7.716,-1.4,-2.856));
#370 = DIRECTION('',(0.E+000,1.,0.E+000));
#371 = DIRECTION('',(1.,0.E+000,-4.311546871385E-030));
#372 = ORIENTED_EDGE('',*,*,#321,.T.);
#373 = ORIENTED_EDGE('',*,*,#364,.T.);
#374 = ORIENTED_EDGE('',*,*,#375,.F.);
#375 = EDGE_CURVE('',#365,#365,#376,.T.);
#376 = CIRCLE('',#377,0.216);
#377 = AXIS2_PLACEMENT_3D('',#378,#379,#380);
#378 = CARTESIAN_POINT('',(7.5,-1.4,-3.));
#379 = DIRECTION('',(4.311546871385E-030,-0.E+000,1.));
#380 = DIRECTION('',(1.,0.E+000,-4.311546871385E-030));
#381 = TOROIDAL_SURFACE('',#382,0.216,0.144);
#382 = AXIS2_PLACEMENT_3D('',#383,#384,#385);
#383 = CARTESIAN_POINT('',(7.5,-1.4,-2.856));
#384 = DIRECTION('',(-4.311546871385E-030,-0.E+000,-1.));
#385 = DIRECTION('',(1.,0.E+000,-4.311546871385E-030));
#386 = ADVANCED_FACE('',(#387),#390,.F.);
#387 = FACE_BOUND('',#388,.F.);
#388 = EDGE_LOOP('',(#389));
#389 = ORIENTED_EDGE('',*,*,#349,.T.);
#390 = PLANE('',#391);
#391 = AXIS2_PLACEMENT_3D('',#392,#393,#394);
#392 = CARTESIAN_POINT('',(-1.483767504926E-017,1.497958850874E-017,-3.)
);
#393 = DIRECTION('',(0.E+000,0.E+000,1.));
#394 = DIRECTION('',(1.,0.E+000,0.E+000));
#395 = ADVANCED_FACE('',(#396),#399,.F.);
#396 = FACE_BOUND('',#397,.F.);
#397 = EDGE_LOOP('',(#398));
#398 = ORIENTED_EDGE('',*,*,#375,.T.);
#399 = PLANE('',#400);
#400 = AXIS2_PLACEMENT_3D('',#401,#402,#403);
#401 = CARTESIAN_POINT('',(7.5,-1.4,-3.));
#402 = DIRECTION('',(4.311546871385E-030,0.E+000,1.));
#403 = DIRECTION('',(1.,0.E+000,-4.311546871385E-030));
#404 = ( GEOMETRIC_REPRESENTATION_CONTEXT(3)
GLOBAL_UNCERTAINTY_ASSIGNED_CONTEXT((#408)) GLOBAL_UNIT_ASSIGNED_CONTEXT
((#405,#406,#407)) REPRESENTATION_CONTEXT('Context #1',
'3D Context with UNIT and UNCERTAINTY') );
#405 = ( LENGTH_UNIT() NAMED_UNIT(*) SI_UNIT(.MILLI.,.METRE.) );
#406 = ( NAMED_UNIT(*) PLANE_ANGLE_UNIT() SI_UNIT($,.RADIAN.) );
#407 = ( NAMED_UNIT(*) SI_UNIT($,.STERADIAN.) SOLID_ANGLE_UNIT() );
#408 = UNCERTAINTY_MEASURE_WITH_UNIT(LENGTH_MEASURE(1.E-007),#405,
'distance_accuracy_value','confusion accuracy');
#409 = PRODUCT_RELATED_PRODUCT_CATEGORY('part',$,(#7));
#410 = MECHANICAL_DESIGN_GEOMETRIC_PRESENTATION_REPRESENTATION('',(#411,
#419,#426,#433,#440,#448,#455,#462,#469,#476,#483),#404);
#411 = STYLED_ITEM('color',(#412),#17);
#412 = PRESENTATION_STYLE_ASSIGNMENT((#413));
#413 = SURFACE_STYLE_USAGE(.BOTH.,#414);
#414 = SURFACE_SIDE_STYLE('',(#415));
#415 = SURFACE_STYLE_FILL_AREA(#416);
#416 = FILL_AREA_STYLE('',(#417));
#417 = FILL_AREA_STYLE_COLOUR('',#418);
#418 = COLOUR_RGB('',0.136999994516,0.402000010014,0.726999998093);
#419 = STYLED_ITEM('color',(#420),#50);
#420 = PRESENTATION_STYLE_ASSIGNMENT((#421));
#421 = SURFACE_STYLE_USAGE(.BOTH.,#422);
#422 = SURFACE_SIDE_STYLE('',(#423));
#423 = SURFACE_STYLE_FILL_AREA(#424);
#424 = FILL_AREA_STYLE('',(#425));
#425 = FILL_AREA_STYLE_COLOUR('',#418);
#426 = STYLED_ITEM('color',(#427),#152);
#427 = PRESENTATION_STYLE_ASSIGNMENT((#428));
#428 = SURFACE_STYLE_USAGE(.BOTH.,#429);
#429 = SURFACE_SIDE_STYLE('',(#430));
#430 = SURFACE_STYLE_FILL_AREA(#431);
#431 = FILL_AREA_STYLE('',(#432));
#432 = FILL_AREA_STYLE_COLOUR('',#418);
#433 = STYLED_ITEM('color',(#434),#264);
#434 = PRESENTATION_STYLE_ASSIGNMENT((#435));
#435 = SURFACE_STYLE_USAGE(.BOTH.,#436);
#436 = SURFACE_SIDE_STYLE('',(#437));
#437 = SURFACE_STYLE_FILL_AREA(#438);
#438 = FILL_AREA_STYLE('',(#439));
#439 = FILL_AREA_STYLE_COLOUR('',#418);
#440 = STYLED_ITEM('color',(#441),#273);
#441 = PRESENTATION_STYLE_ASSIGNMENT((#442));
#442 = SURFACE_STYLE_USAGE(.BOTH.,#443);
#443 = SURFACE_SIDE_STYLE('',(#444));
#444 = SURFACE_STYLE_FILL_AREA(#445);
#445 = FILL_AREA_STYLE('',(#446));
#446 = FILL_AREA_STYLE_COLOUR('',#447);
#447 = COLOUR_RGB('',0.824000000954,0.819999992847,0.78100001812);
#448 = STYLED_ITEM('color',(#449),#299);
#449 = PRESENTATION_STYLE_ASSIGNMENT((#450));
#450 = SURFACE_STYLE_USAGE(.BOTH.,#451);
#451 = SURFACE_SIDE_STYLE('',(#452));
#452 = SURFACE_STYLE_FILL_AREA(#453);
#453 = FILL_AREA_STYLE('',(#454));
#454 = FILL_AREA_STYLE_COLOUR('',#418);
#455 = STYLED_ITEM('color',(#456),#308);
#456 = PRESENTATION_STYLE_ASSIGNMENT((#457));
#457 = SURFACE_STYLE_USAGE(.BOTH.,#458);
#458 = SURFACE_SIDE_STYLE('',(#459));
#459 = SURFACE_STYLE_FILL_AREA(#460);
#460 = FILL_AREA_STYLE('',(#461));
#461 = FILL_AREA_STYLE_COLOUR('',#447);
#462 = STYLED_ITEM('color',(#463),#334);
#463 = PRESENTATION_STYLE_ASSIGNMENT((#464));
#464 = SURFACE_STYLE_USAGE(.BOTH.,#465);
#465 = SURFACE_SIDE_STYLE('',(#466));
#466 = SURFACE_STYLE_FILL_AREA(#467);
#467 = FILL_AREA_STYLE('',(#468));
#468 = FILL_AREA_STYLE_COLOUR('',#447);
#469 = STYLED_ITEM('color',(#470),#360);
#470 = PRESENTATION_STYLE_ASSIGNMENT((#471));
#471 = SURFACE_STYLE_USAGE(.BOTH.,#472);
#472 = SURFACE_SIDE_STYLE('',(#473));
#473 = SURFACE_STYLE_FILL_AREA(#474);
#474 = FILL_AREA_STYLE('',(#475));
#475 = FILL_AREA_STYLE_COLOUR('',#447);
#476 = STYLED_ITEM('color',(#477),#386);
#477 = PRESENTATION_STYLE_ASSIGNMENT((#478));
#478 = SURFACE_STYLE_USAGE(.BOTH.,#479);
#479 = SURFACE_SIDE_STYLE('',(#480));
#480 = SURFACE_STYLE_FILL_AREA(#481);
#481 = FILL_AREA_STYLE('',(#482));
#482 = FILL_AREA_STYLE_COLOUR('',#447);
#483 = STYLED_ITEM('color',(#484),#395);
#484 = PRESENTATION_STYLE_ASSIGNMENT((#485));
#485 = SURFACE_STYLE_USAGE(.BOTH.,#486);
#486 = SURFACE_SIDE_STYLE('',(#487));
#487 = SURFACE_STYLE_FILL_AREA(#488);
#488 = FILL_AREA_STYLE('',(#489));
#489 = FILL_AREA_STYLE_COLOUR('',#447);
ENDSEC;
END-ISO-10303-21;
