ISO-10303-21;
HEADER;
/* Texas_DSBGA-8_1.43x1.41mm_Layout3x3_P0.5mm.step 3D STEP model for use in ECAD systems
 * Copyright (C) 2018, kicad StepUp
 * 
 * This work is licensed under the [Creative Commons CC-BY-SA 4.0 License](https://creativecommons.org/licenses/by-sa/4.0/legalcode), 
 * with the following exception:
 * To the extent that the creation of electronic designs that use 'Licensed Material' can be considered to be 'Adapted Material', 
 * then the copyright holder waives article 3 of the license with respect to these designs and any generated files which use data provided 
 * as part of the 'Licensed Material'.
 * You are free to use the library data in your own projects without the obligation to share your project files under this or any other license agreement.
 * However, if you wish to redistribute these libraries, or parts thereof (including in modified form) as a collection then the exception above does not apply. 
 * Please refer to https://github.com/KiCad/kicad-packages3D/blob/master/LICENSE.md for further clarification of the exception.
 * Disclaimer of Warranties and Limitation of Liability.
 * These libraries are provided in the hope that they will be useful, but are provided without warranty of any kind, express or implied.
 * *USE 3D CAD DATA AT YOUR OWN RISK*
 * *DO NOT RELY UPON ANY INFORMATION FOUND HERE WITHOUT INDEPENDENT VERIFICATION.*
 * 
 */

FILE_DESCRIPTION(
/* description */ ('model of Texas_DSBGA-8_1.43x1.41mm_Layout3x3_P0.5mm'),
/* implementation_level */ '2;1');

FILE_NAME(
/* name */ 'Texas_DSBGA-8_1.43x1.41mm_Layout3x3_P0.5mm.step',
/* time_stamp */ '2018-11-07T22:18:00',
/* author */ ('kicad StepUp','ksu'),
/* organization */ ('FreeCAD'),
/* preprocessor_version */ 'OCC',
/* originating_system */ 'kicad StepUp',
/* authorisation */ '');

FILE_SCHEMA(('AUTOMOTIVE_DESIGN { 1 0 10303 214 1 1 1 1 }'));
ENDSEC;

DATA;
#1 = APPLICATION_PROTOCOL_DEFINITION('international standard',
'automotive_design',2000,#2);
#2 = APPLICATION_CONTEXT(
'core data for automotive mechanical design processes');
#3 = SHAPE_DEFINITION_REPRESENTATION(#4,#10);
#4 = PRODUCT_DEFINITION_SHAPE('','',#5);
#5 = PRODUCT_DEFINITION('design','',#6,#9);
#6 = PRODUCT_DEFINITION_FORMATION('','',#7);
#7 = PRODUCT('Texas_DSBGA_8_143x141mm_Layout3x3_P05mm',
'Texas_DSBGA_8_143x141mm_Layout3x3_P05mm','',(#8));
#8 = PRODUCT_CONTEXT('',#2,'mechanical');
#9 = PRODUCT_DEFINITION_CONTEXT('part definition',#2,'design');
#10 = ADVANCED_BREP_SHAPE_REPRESENTATION('',(#11,#15),#450);
#11 = AXIS2_PLACEMENT_3D('',#12,#13,#14);
#12 = CARTESIAN_POINT('',(0.E+000,0.E+000,0.E+000));
#13 = DIRECTION('',(0.E+000,0.E+000,1.));
#14 = DIRECTION('',(1.,0.E+000,-0.E+000));
#15 = MANIFOLD_SOLID_BREP('',#16);
#16 = CLOSED_SHELL('',(#17,#57,#88,#123,#147,#252,#264,#289,#308,#327,
#346,#365,#384,#403,#422,#441));
#17 = ADVANCED_FACE('',(#18),#52,.F.);
#18 = FACE_BOUND('',#19,.F.);
#19 = EDGE_LOOP('',(#20,#30,#38,#46));
#20 = ORIENTED_EDGE('',*,*,#21,.F.);
#21 = EDGE_CURVE('',#22,#24,#26,.T.);
#22 = VERTEX_POINT('',#23);
#23 = CARTESIAN_POINT('',(-0.705,0.715,2.5E-002));
#24 = VERTEX_POINT('',#25);
#25 = CARTESIAN_POINT('',(-0.705,0.715,0.75));
#26 = LINE('',#27,#28);
#27 = CARTESIAN_POINT('',(-0.705,0.715,2.5E-002));
#28 = VECTOR('',#29,1.);
#29 = DIRECTION('',(0.E+000,0.E+000,1.));
#30 = ORIENTED_EDGE('',*,*,#31,.T.);
#31 = EDGE_CURVE('',#22,#32,#34,.T.);
#32 = VERTEX_POINT('',#33);
#33 = CARTESIAN_POINT('',(0.705,0.715,2.5E-002));
#34 = LINE('',#35,#36);
#35 = CARTESIAN_POINT('',(-0.705,0.715,2.5E-002));
#36 = VECTOR('',#37,1.);
#37 = DIRECTION('',(1.,-2.22044604925E-016,0.E+000));
#38 = ORIENTED_EDGE('',*,*,#39,.T.);
#39 = EDGE_CURVE('',#32,#40,#42,.T.);
#40 = VERTEX_POINT('',#41);
#41 = CARTESIAN_POINT('',(0.705,0.715,0.75));
#42 = LINE('',#43,#44);
#43 = CARTESIAN_POINT('',(0.705,0.715,2.5E-002));
#44 = VECTOR('',#45,1.);
#45 = DIRECTION('',(0.E+000,0.E+000,1.));
#46 = ORIENTED_EDGE('',*,*,#47,.F.);
#47 = EDGE_CURVE('',#24,#40,#48,.T.);
#48 = LINE('',#49,#50);
#49 = CARTESIAN_POINT('',(-0.705,0.715,0.75));
#50 = VECTOR('',#51,1.);
#51 = DIRECTION('',(1.,-2.22044604925E-016,0.E+000));
#52 = PLANE('',#53);
#53 = AXIS2_PLACEMENT_3D('',#54,#55,#56);
#54 = CARTESIAN_POINT('',(-0.705,0.715,2.5E-002));
#55 = DIRECTION('',(-2.22044604925E-016,-1.,0.E+000));
#56 = DIRECTION('',(0.E+000,0.E+000,1.));
#57 = ADVANCED_FACE('',(#58),#83,.F.);
#58 = FACE_BOUND('',#59,.F.);
#59 = EDGE_LOOP('',(#60,#68,#69,#77));
#60 = ORIENTED_EDGE('',*,*,#61,.F.);
#61 = EDGE_CURVE('',#22,#62,#64,.T.);
#62 = VERTEX_POINT('',#63);
#63 = CARTESIAN_POINT('',(-0.705,-0.715,2.5E-002));
#64 = LINE('',#65,#66);
#65 = CARTESIAN_POINT('',(-0.705,0.715,2.5E-002));
#66 = VECTOR('',#67,1.);
#67 = DIRECTION('',(-2.22044604925E-016,-1.,0.E+000));
#68 = ORIENTED_EDGE('',*,*,#21,.T.);
#69 = ORIENTED_EDGE('',*,*,#70,.T.);
#70 = EDGE_CURVE('',#24,#71,#73,.T.);
#71 = VERTEX_POINT('',#72);
#72 = CARTESIAN_POINT('',(-0.705,-0.715,0.75));
#73 = LINE('',#74,#75);
#74 = CARTESIAN_POINT('',(-0.705,0.715,0.75));
#75 = VECTOR('',#76,1.);
#76 = DIRECTION('',(-2.22044604925E-016,-1.,0.E+000));
#77 = ORIENTED_EDGE('',*,*,#78,.F.);
#78 = EDGE_CURVE('',#62,#71,#79,.T.);
#79 = LINE('',#80,#81);
#80 = CARTESIAN_POINT('',(-0.705,-0.715,2.5E-002));
#81 = VECTOR('',#82,1.);
#82 = DIRECTION('',(0.E+000,0.E+000,1.));
#83 = PLANE('',#84);
#84 = AXIS2_PLACEMENT_3D('',#85,#86,#87);
#85 = CARTESIAN_POINT('',(-0.705,0.715,2.5E-002));
#86 = DIRECTION('',(1.,-2.22044604925E-016,0.E+000));
#87 = DIRECTION('',(0.E+000,0.E+000,1.));
#88 = ADVANCED_FACE('',(#89,#107),#118,.T.);
#89 = FACE_BOUND('',#90,.T.);
#90 = EDGE_LOOP('',(#91,#92,#93,#101));
#91 = ORIENTED_EDGE('',*,*,#47,.F.);
#92 = ORIENTED_EDGE('',*,*,#70,.T.);
#93 = ORIENTED_EDGE('',*,*,#94,.T.);
#94 = EDGE_CURVE('',#71,#95,#97,.T.);
#95 = VERTEX_POINT('',#96);
#96 = CARTESIAN_POINT('',(0.705,-0.715,0.75));
#97 = LINE('',#98,#99);
#98 = CARTESIAN_POINT('',(-0.705,-0.715,0.75));
#99 = VECTOR('',#100,1.);
#100 = DIRECTION('',(1.,-2.22044604925E-016,0.E+000));
#101 = ORIENTED_EDGE('',*,*,#102,.F.);
#102 = EDGE_CURVE('',#40,#95,#103,.T.);
#103 = LINE('',#104,#105);
#104 = CARTESIAN_POINT('',(0.705,0.715,0.75));
#105 = VECTOR('',#106,1.);
#106 = DIRECTION('',(-2.22044604925E-016,-1.,0.E+000));
#107 = FACE_BOUND('',#108,.T.);
#108 = EDGE_LOOP('',(#109));
#109 = ORIENTED_EDGE('',*,*,#110,.T.);
#110 = EDGE_CURVE('',#111,#111,#113,.T.);
#111 = VERTEX_POINT('',#112);
#112 = CARTESIAN_POINT('',(-0.405,0.315,0.75));
#113 = CIRCLE('',#114,0.1);
#114 = AXIS2_PLACEMENT_3D('',#115,#116,#117);
#115 = CARTESIAN_POINT('',(-0.405,0.415,0.75));
#116 = DIRECTION('',(-0.E+000,0.E+000,-1.));
#117 = DIRECTION('',(-2.22044604925E-016,-1.,0.E+000));
#118 = PLANE('',#119);
#119 = AXIS2_PLACEMENT_3D('',#120,#121,#122);
#120 = CARTESIAN_POINT('',(-0.705,0.715,0.75));
#121 = DIRECTION('',(0.E+000,0.E+000,1.));
#122 = DIRECTION('',(-2.22044604925E-016,-1.,0.E+000));
#123 = ADVANCED_FACE('',(#124),#142,.T.);
#124 = FACE_BOUND('',#125,.T.);
#125 = EDGE_LOOP('',(#126,#134,#135,#136));
#126 = ORIENTED_EDGE('',*,*,#127,.F.);
#127 = EDGE_CURVE('',#32,#128,#130,.T.);
#128 = VERTEX_POINT('',#129);
#129 = CARTESIAN_POINT('',(0.705,-0.715,2.5E-002));
#130 = LINE('',#131,#132);
#131 = CARTESIAN_POINT('',(0.705,0.715,2.5E-002));
#132 = VECTOR('',#133,1.);
#133 = DIRECTION('',(-2.22044604925E-016,-1.,0.E+000));
#134 = ORIENTED_EDGE('',*,*,#39,.T.);
#135 = ORIENTED_EDGE('',*,*,#102,.T.);
#136 = ORIENTED_EDGE('',*,*,#137,.F.);
#137 = EDGE_CURVE('',#128,#95,#138,.T.);
#138 = LINE('',#139,#140);
#139 = CARTESIAN_POINT('',(0.705,-0.715,2.5E-002));
#140 = VECTOR('',#141,1.);
#141 = DIRECTION('',(0.E+000,0.E+000,1.));
#142 = PLANE('',#143);
#143 = AXIS2_PLACEMENT_3D('',#144,#145,#146);
#144 = CARTESIAN_POINT('',(0.705,0.715,2.5E-002));
#145 = DIRECTION('',(1.,-2.22044604925E-016,0.E+000));
#146 = DIRECTION('',(0.E+000,0.E+000,1.));
#147 = ADVANCED_FACE('',(#148,#159,#170,#181,#192,#203,#214,#225,#236),
#247,.F.);
#148 = FACE_BOUND('',#149,.F.);
#149 = EDGE_LOOP('',(#150,#151,#152,#158));
#150 = ORIENTED_EDGE('',*,*,#31,.F.);
#151 = ORIENTED_EDGE('',*,*,#61,.T.);
#152 = ORIENTED_EDGE('',*,*,#153,.T.);
#153 = EDGE_CURVE('',#62,#128,#154,.T.);
#154 = LINE('',#155,#156);
#155 = CARTESIAN_POINT('',(-0.705,-0.715,2.5E-002));
#156 = VECTOR('',#157,1.);
#157 = DIRECTION('',(1.,-2.22044604925E-016,0.E+000));
#158 = ORIENTED_EDGE('',*,*,#127,.F.);
#159 = FACE_BOUND('',#160,.F.);
#160 = EDGE_LOOP('',(#161));
#161 = ORIENTED_EDGE('',*,*,#162,.F.);
#162 = EDGE_CURVE('',#163,#163,#165,.T.);
#163 = VERTEX_POINT('',#164);
#164 = CARTESIAN_POINT('',(-0.5,0.58500919068,2.5E-002));
#165 = CIRCLE('',#166,8.50091906796E-002);
#166 = AXIS2_PLACEMENT_3D('',#167,#168,#169);
#167 = CARTESIAN_POINT('',(-0.5,0.5,2.5E-002));
#168 = DIRECTION('',(0.E+000,-0.E+000,1.));
#169 = DIRECTION('',(3.445092848398E-016,1.,0.E+000));
#170 = FACE_BOUND('',#171,.F.);
#171 = EDGE_LOOP('',(#172));
#172 = ORIENTED_EDGE('',*,*,#173,.F.);
#173 = EDGE_CURVE('',#174,#174,#176,.T.);
#174 = VERTEX_POINT('',#175);
#175 = CARTESIAN_POINT('',(0.5,0.58500919068,2.5E-002));
#176 = CIRCLE('',#177,8.50091906796E-002);
#177 = AXIS2_PLACEMENT_3D('',#178,#179,#180);
#178 = CARTESIAN_POINT('',(0.5,0.5,2.5E-002));
#179 = DIRECTION('',(0.E+000,-0.E+000,1.));
#180 = DIRECTION('',(3.445092848398E-016,1.,0.E+000));
#181 = FACE_BOUND('',#182,.F.);
#182 = EDGE_LOOP('',(#183));
#183 = ORIENTED_EDGE('',*,*,#184,.F.);
#184 = EDGE_CURVE('',#185,#185,#187,.T.);
#185 = VERTEX_POINT('',#186);
#186 = CARTESIAN_POINT('',(2.223623445585E-016,0.58500919068,2.5E-002));
#187 = CIRCLE('',#188,8.50091906796E-002);
#188 = AXIS2_PLACEMENT_3D('',#189,#190,#191);
#189 = CARTESIAN_POINT('',(1.722546424199E-016,0.5,2.5E-002));
#190 = DIRECTION('',(0.E+000,-0.E+000,1.));
#191 = DIRECTION('',(3.445092848398E-016,1.,0.E+000));
#192 = FACE_BOUND('',#193,.F.);
#193 = EDGE_LOOP('',(#194));
#194 = ORIENTED_EDGE('',*,*,#195,.F.);
#195 = EDGE_CURVE('',#196,#196,#198,.T.);
#196 = VERTEX_POINT('',#197);
#197 = CARTESIAN_POINT('',(0.5,8.50091906796E-002,2.5E-002));
#198 = CIRCLE('',#199,8.50091906796E-002);
#199 = AXIS2_PLACEMENT_3D('',#200,#201,#202);
#200 = CARTESIAN_POINT('',(0.5,-1.722546424199E-016,2.5E-002));
#201 = DIRECTION('',(0.E+000,-0.E+000,1.));
#202 = DIRECTION('',(3.445092848398E-016,1.,0.E+000));
#203 = FACE_BOUND('',#204,.F.);
#204 = EDGE_LOOP('',(#205));
#205 = ORIENTED_EDGE('',*,*,#206,.F.);
#206 = EDGE_CURVE('',#207,#207,#209,.T.);
#207 = VERTEX_POINT('',#208);
#208 = CARTESIAN_POINT('',(-0.5,8.50091906796E-002,2.5E-002));
#209 = CIRCLE('',#210,8.50091906796E-002);
#210 = AXIS2_PLACEMENT_3D('',#211,#212,#213);
#211 = CARTESIAN_POINT('',(-0.5,1.722546424199E-016,2.5E-002));
#212 = DIRECTION('',(0.E+000,-0.E+000,1.));
#213 = DIRECTION('',(3.445092848398E-016,1.,0.E+000));
#214 = FACE_BOUND('',#215,.F.);
#215 = EDGE_LOOP('',(#216));
#216 = ORIENTED_EDGE('',*,*,#217,.F.);
#217 = EDGE_CURVE('',#218,#218,#220,.T.);
#218 = VERTEX_POINT('',#219);
#219 = CARTESIAN_POINT('',(-0.5,-0.41499080932,2.5E-002));
#220 = CIRCLE('',#221,8.50091906796E-002);
#221 = AXIS2_PLACEMENT_3D('',#222,#223,#224);
#222 = CARTESIAN_POINT('',(-0.5,-0.5,2.5E-002));
#223 = DIRECTION('',(0.E+000,-0.E+000,1.));
#224 = DIRECTION('',(3.445092848398E-016,1.,0.E+000));
#225 = FACE_BOUND('',#226,.F.);
#226 = EDGE_LOOP('',(#227));
#227 = ORIENTED_EDGE('',*,*,#228,.F.);
#228 = EDGE_CURVE('',#229,#229,#231,.T.);
#229 = VERTEX_POINT('',#230);
#230 = CARTESIAN_POINT('',(-1.221469402813E-016,-0.41499080932,2.5E-002)
);
#231 = CIRCLE('',#232,8.50091906796E-002);
#232 = AXIS2_PLACEMENT_3D('',#233,#234,#235);
#233 = CARTESIAN_POINT('',(-1.722546424199E-016,-0.5,2.5E-002));
#234 = DIRECTION('',(0.E+000,-0.E+000,1.));
#235 = DIRECTION('',(3.445092848398E-016,1.,0.E+000));
#236 = FACE_BOUND('',#237,.F.);
#237 = EDGE_LOOP('',(#238));
#238 = ORIENTED_EDGE('',*,*,#239,.F.);
#239 = EDGE_CURVE('',#240,#240,#242,.T.);
#240 = VERTEX_POINT('',#241);
#241 = CARTESIAN_POINT('',(0.5,-0.41499080932,2.5E-002));
#242 = CIRCLE('',#243,8.50091906796E-002);
#243 = AXIS2_PLACEMENT_3D('',#244,#245,#246);
#244 = CARTESIAN_POINT('',(0.5,-0.5,2.5E-002));
#245 = DIRECTION('',(0.E+000,-0.E+000,1.));
#246 = DIRECTION('',(3.445092848398E-016,1.,0.E+000));
#247 = PLANE('',#248);
#248 = AXIS2_PLACEMENT_3D('',#249,#250,#251);
#249 = CARTESIAN_POINT('',(-0.705,0.715,2.5E-002));
#250 = DIRECTION('',(0.E+000,0.E+000,1.));
#251 = DIRECTION('',(-2.22044604925E-016,-1.,0.E+000));
#252 = ADVANCED_FACE('',(#253),#259,.T.);
#253 = FACE_BOUND('',#254,.T.);
#254 = EDGE_LOOP('',(#255,#256,#257,#258));
#255 = ORIENTED_EDGE('',*,*,#78,.F.);
#256 = ORIENTED_EDGE('',*,*,#153,.T.);
#257 = ORIENTED_EDGE('',*,*,#137,.T.);
#258 = ORIENTED_EDGE('',*,*,#94,.F.);
#259 = PLANE('',#260);
#260 = AXIS2_PLACEMENT_3D('',#261,#262,#263);
#261 = CARTESIAN_POINT('',(-0.705,-0.715,2.5E-002));
#262 = DIRECTION('',(-2.22044604925E-016,-1.,0.E+000));
#263 = DIRECTION('',(0.E+000,0.E+000,1.));
#264 = ADVANCED_FACE('',(#265),#284,.F.);
#265 = FACE_BOUND('',#266,.T.);
#266 = EDGE_LOOP('',(#267,#268,#276,#283));
#267 = ORIENTED_EDGE('',*,*,#110,.F.);
#268 = ORIENTED_EDGE('',*,*,#269,.T.);
#269 = EDGE_CURVE('',#111,#270,#272,.T.);
#270 = VERTEX_POINT('',#271);
#271 = CARTESIAN_POINT('',(-0.405,0.315,0.55));
#272 = LINE('',#273,#274);
#273 = CARTESIAN_POINT('',(-0.405,0.315,0.95));
#274 = VECTOR('',#275,1.);
#275 = DIRECTION('',(-0.E+000,0.E+000,-1.));
#276 = ORIENTED_EDGE('',*,*,#277,.F.);
#277 = EDGE_CURVE('',#270,#270,#278,.T.);
#278 = CIRCLE('',#279,0.1);
#279 = AXIS2_PLACEMENT_3D('',#280,#281,#282);
#280 = CARTESIAN_POINT('',(-0.405,0.415,0.55));
#281 = DIRECTION('',(0.E+000,0.E+000,1.));
#282 = DIRECTION('',(-2.22044604925E-016,-1.,0.E+000));
#283 = ORIENTED_EDGE('',*,*,#269,.F.);
#284 = CYLINDRICAL_SURFACE('',#285,0.1);
#285 = AXIS2_PLACEMENT_3D('',#286,#287,#288);
#286 = CARTESIAN_POINT('',(-0.405,0.415,0.95));
#287 = DIRECTION('',(0.E+000,0.E+000,-1.));
#288 = DIRECTION('',(-2.22044604925E-016,-1.,0.E+000));
#289 = ADVANCED_FACE('',(#290),#303,.T.);
#290 = FACE_BOUND('',#291,.T.);
#291 = EDGE_LOOP('',(#292,#293,#302));
#292 = ORIENTED_EDGE('',*,*,#162,.F.);
#293 = ORIENTED_EDGE('',*,*,#294,.F.);
#294 = EDGE_CURVE('',#295,#163,#297,.T.);
#295 = VERTEX_POINT('',#296);
#296 = CARTESIAN_POINT('',(-0.5,0.5,-6.25E-003));
#297 = CIRCLE('',#298,0.13125);
#298 = AXIS2_PLACEMENT_3D('',#299,#300,#301);
#299 = CARTESIAN_POINT('',(-0.5,0.5,0.125));
#300 = DIRECTION('',(1.,-5.894386446692E-016,0.E+000));
#301 = DIRECTION('',(5.894386446692E-016,1.,0.E+000));
#302 = ORIENTED_EDGE('',*,*,#294,.T.);
#303 = SPHERICAL_SURFACE('',#304,0.13125);
#304 = AXIS2_PLACEMENT_3D('',#305,#306,#307);
#305 = CARTESIAN_POINT('',(-0.5,0.5,0.125));
#306 = DIRECTION('',(0.E+000,0.E+000,1.));
#307 = DIRECTION('',(3.445092848398E-016,1.,0.E+000));
#308 = ADVANCED_FACE('',(#309),#322,.T.);
#309 = FACE_BOUND('',#310,.T.);
#310 = EDGE_LOOP('',(#311,#312,#321));
#311 = ORIENTED_EDGE('',*,*,#173,.F.);
#312 = ORIENTED_EDGE('',*,*,#313,.F.);
#313 = EDGE_CURVE('',#314,#174,#316,.T.);
#314 = VERTEX_POINT('',#315);
#315 = CARTESIAN_POINT('',(0.5,0.5,-6.25E-003));
#316 = CIRCLE('',#317,0.13125);
#317 = AXIS2_PLACEMENT_3D('',#318,#319,#320);
#318 = CARTESIAN_POINT('',(0.5,0.5,0.125));
#319 = DIRECTION('',(1.,-5.894386446692E-016,0.E+000));
#320 = DIRECTION('',(5.894386446692E-016,1.,0.E+000));
#321 = ORIENTED_EDGE('',*,*,#313,.T.);
#322 = SPHERICAL_SURFACE('',#323,0.13125);
#323 = AXIS2_PLACEMENT_3D('',#324,#325,#326);
#324 = CARTESIAN_POINT('',(0.5,0.5,0.125));
#325 = DIRECTION('',(0.E+000,0.E+000,1.));
#326 = DIRECTION('',(3.445092848398E-016,1.,0.E+000));
#327 = ADVANCED_FACE('',(#328),#341,.T.);
#328 = FACE_BOUND('',#329,.T.);
#329 = EDGE_LOOP('',(#330,#331,#340));
#330 = ORIENTED_EDGE('',*,*,#184,.F.);
#331 = ORIENTED_EDGE('',*,*,#332,.F.);
#332 = EDGE_CURVE('',#333,#185,#335,.T.);
#333 = VERTEX_POINT('',#334);
#334 = CARTESIAN_POINT('',(1.722546424199E-016,0.5,-6.25E-003));
#335 = CIRCLE('',#336,0.13125);
#336 = AXIS2_PLACEMENT_3D('',#337,#338,#339);
#337 = CARTESIAN_POINT('',(1.722546424199E-016,0.5,0.125));
#338 = DIRECTION('',(1.,-5.894386446692E-016,0.E+000));
#339 = DIRECTION('',(5.894386446692E-016,1.,0.E+000));
#340 = ORIENTED_EDGE('',*,*,#332,.T.);
#341 = SPHERICAL_SURFACE('',#342,0.13125);
#342 = AXIS2_PLACEMENT_3D('',#343,#344,#345);
#343 = CARTESIAN_POINT('',(1.722546424199E-016,0.5,0.125));
#344 = DIRECTION('',(0.E+000,0.E+000,1.));
#345 = DIRECTION('',(3.445092848398E-016,1.,0.E+000));
#346 = ADVANCED_FACE('',(#347),#360,.T.);
#347 = FACE_BOUND('',#348,.T.);
#348 = EDGE_LOOP('',(#349,#350,#359));
#349 = ORIENTED_EDGE('',*,*,#195,.F.);
#350 = ORIENTED_EDGE('',*,*,#351,.F.);
#351 = EDGE_CURVE('',#352,#196,#354,.T.);
#352 = VERTEX_POINT('',#353);
#353 = CARTESIAN_POINT('',(0.5,-1.642178978005E-016,-6.25E-003));
#354 = CIRCLE('',#355,0.13125);
#355 = AXIS2_PLACEMENT_3D('',#356,#357,#358);
#356 = CARTESIAN_POINT('',(0.5,-1.722546424199E-016,0.125));
#357 = DIRECTION('',(1.,-5.894386446692E-016,0.E+000));
#358 = DIRECTION('',(5.894386446692E-016,1.,0.E+000));
#359 = ORIENTED_EDGE('',*,*,#351,.T.);
#360 = SPHERICAL_SURFACE('',#361,0.13125);
#361 = AXIS2_PLACEMENT_3D('',#362,#363,#364);
#362 = CARTESIAN_POINT('',(0.5,-1.722546424199E-016,0.125));
#363 = DIRECTION('',(0.E+000,0.E+000,1.));
#364 = DIRECTION('',(3.445092848398E-016,1.,0.E+000));
#365 = ADVANCED_FACE('',(#366),#379,.T.);
#366 = FACE_BOUND('',#367,.T.);
#367 = EDGE_LOOP('',(#368,#369,#378));
#368 = ORIENTED_EDGE('',*,*,#206,.F.);
#369 = ORIENTED_EDGE('',*,*,#370,.F.);
#370 = EDGE_CURVE('',#371,#207,#373,.T.);
#371 = VERTEX_POINT('',#372);
#372 = CARTESIAN_POINT('',(-0.5,1.802913870393E-016,-6.25E-003));
#373 = CIRCLE('',#374,0.13125);
#374 = AXIS2_PLACEMENT_3D('',#375,#376,#377);
#375 = CARTESIAN_POINT('',(-0.5,1.722546424199E-016,0.125));
#376 = DIRECTION('',(1.,-5.894386446692E-016,0.E+000));
#377 = DIRECTION('',(5.894386446692E-016,1.,0.E+000));
#378 = ORIENTED_EDGE('',*,*,#370,.T.);
#379 = SPHERICAL_SURFACE('',#380,0.13125);
#380 = AXIS2_PLACEMENT_3D('',#381,#382,#383);
#381 = CARTESIAN_POINT('',(-0.5,1.722546424199E-016,0.125));
#382 = DIRECTION('',(0.E+000,0.E+000,1.));
#383 = DIRECTION('',(3.445092848398E-016,1.,0.E+000));
#384 = ADVANCED_FACE('',(#385),#398,.T.);
#385 = FACE_BOUND('',#386,.T.);
#386 = EDGE_LOOP('',(#387,#388,#397));
#387 = ORIENTED_EDGE('',*,*,#217,.F.);
#388 = ORIENTED_EDGE('',*,*,#389,.F.);
#389 = EDGE_CURVE('',#390,#218,#392,.T.);
#390 = VERTEX_POINT('',#391);
#391 = CARTESIAN_POINT('',(-0.5,-0.5,-6.25E-003));
#392 = CIRCLE('',#393,0.13125);
#393 = AXIS2_PLACEMENT_3D('',#394,#395,#396);
#394 = CARTESIAN_POINT('',(-0.5,-0.5,0.125));
#395 = DIRECTION('',(1.,-5.894386446692E-016,0.E+000));
#396 = DIRECTION('',(5.894386446692E-016,1.,0.E+000));
#397 = ORIENTED_EDGE('',*,*,#389,.T.);
#398 = SPHERICAL_SURFACE('',#399,0.13125);
#399 = AXIS2_PLACEMENT_3D('',#400,#401,#402);
#400 = CARTESIAN_POINT('',(-0.5,-0.5,0.125));
#401 = DIRECTION('',(0.E+000,0.E+000,1.));
#402 = DIRECTION('',(3.445092848398E-016,1.,0.E+000));
#403 = ADVANCED_FACE('',(#404),#417,.T.);
#404 = FACE_BOUND('',#405,.T.);
#405 = EDGE_LOOP('',(#406,#407,#416));
#406 = ORIENTED_EDGE('',*,*,#228,.F.);
#407 = ORIENTED_EDGE('',*,*,#408,.F.);
#408 = EDGE_CURVE('',#409,#229,#411,.T.);
#409 = VERTEX_POINT('',#410);
#410 = CARTESIAN_POINT('',(-1.722546424199E-016,-0.5,-6.25E-003));
#411 = CIRCLE('',#412,0.13125);
#412 = AXIS2_PLACEMENT_3D('',#413,#414,#415);
#413 = CARTESIAN_POINT('',(-1.722546424199E-016,-0.5,0.125));
#414 = DIRECTION('',(1.,-5.894386446692E-016,0.E+000));
#415 = DIRECTION('',(5.894386446692E-016,1.,0.E+000));
#416 = ORIENTED_EDGE('',*,*,#408,.T.);
#417 = SPHERICAL_SURFACE('',#418,0.13125);
#418 = AXIS2_PLACEMENT_3D('',#419,#420,#421);
#419 = CARTESIAN_POINT('',(-1.722546424199E-016,-0.5,0.125));
#420 = DIRECTION('',(0.E+000,0.E+000,1.));
#421 = DIRECTION('',(3.445092848398E-016,1.,0.E+000));
#422 = ADVANCED_FACE('',(#423),#436,.T.);
#423 = FACE_BOUND('',#424,.T.);
#424 = EDGE_LOOP('',(#425,#426,#435));
#425 = ORIENTED_EDGE('',*,*,#239,.F.);
#426 = ORIENTED_EDGE('',*,*,#427,.F.);
#427 = EDGE_CURVE('',#428,#240,#430,.T.);
#428 = VERTEX_POINT('',#429);
#429 = CARTESIAN_POINT('',(0.5,-0.5,-6.25E-003));
#430 = CIRCLE('',#431,0.13125);
#431 = AXIS2_PLACEMENT_3D('',#432,#433,#434);
#432 = CARTESIAN_POINT('',(0.5,-0.5,0.125));
#433 = DIRECTION('',(1.,-5.894386446692E-016,0.E+000));
#434 = DIRECTION('',(5.894386446692E-016,1.,0.E+000));
#435 = ORIENTED_EDGE('',*,*,#427,.T.);
#436 = SPHERICAL_SURFACE('',#437,0.13125);
#437 = AXIS2_PLACEMENT_3D('',#438,#439,#440);
#438 = CARTESIAN_POINT('',(0.5,-0.5,0.125));
#439 = DIRECTION('',(0.E+000,0.E+000,1.));
#440 = DIRECTION('',(3.445092848398E-016,1.,0.E+000));
#441 = ADVANCED_FACE('',(#442),#445,.T.);
#442 = FACE_BOUND('',#443,.T.);
#443 = EDGE_LOOP('',(#444));
#444 = ORIENTED_EDGE('',*,*,#277,.T.);
#445 = PLANE('',#446);
#446 = AXIS2_PLACEMENT_3D('',#447,#448,#449);
#447 = CARTESIAN_POINT('',(-0.405,0.415,0.55));
#448 = DIRECTION('',(0.E+000,0.E+000,1.));
#449 = DIRECTION('',(-2.22044604925E-016,-1.,0.E+000));
#450 = ( GEOMETRIC_REPRESENTATION_CONTEXT(3)
GLOBAL_UNCERTAINTY_ASSIGNED_CONTEXT((#454)) GLOBAL_UNIT_ASSIGNED_CONTEXT
((#451,#452,#453)) REPRESENTATION_CONTEXT('Context #1',
'3D Context with UNIT and UNCERTAINTY') );
#451 = ( LENGTH_UNIT() NAMED_UNIT(*) SI_UNIT(.MILLI.,.METRE.) );
#452 = ( NAMED_UNIT(*) PLANE_ANGLE_UNIT() SI_UNIT($,.RADIAN.) );
#453 = ( NAMED_UNIT(*) SI_UNIT($,.STERADIAN.) SOLID_ANGLE_UNIT() );
#454 = UNCERTAINTY_MEASURE_WITH_UNIT(LENGTH_MEASURE(1.E-007),#451,
'distance_accuracy_value','confusion accuracy');
#455 = PRODUCT_RELATED_PRODUCT_CATEGORY('part',$,(#7));
#456 = MECHANICAL_DESIGN_GEOMETRIC_PRESENTATION_REPRESENTATION('',(#457,
#465,#472,#479,#486,#493,#500,#508,#516,#523,#530,#537,#544,#551,
#558,#565),#450);
#457 = STYLED_ITEM('color',(#458),#17);
#458 = PRESENTATION_STYLE_ASSIGNMENT((#459));
#459 = SURFACE_STYLE_USAGE(.BOTH.,#460);
#460 = SURFACE_SIDE_STYLE('',(#461));
#461 = SURFACE_STYLE_FILL_AREA(#462);
#462 = FILL_AREA_STYLE('',(#463));
#463 = FILL_AREA_STYLE_COLOUR('',#464);
#464 = COLOUR_RGB('',0.148000001907,0.144999995828,0.144999995828);
#465 = STYLED_ITEM('color',(#466),#57);
#466 = PRESENTATION_STYLE_ASSIGNMENT((#467));
#467 = SURFACE_STYLE_USAGE(.BOTH.,#468);
#468 = SURFACE_SIDE_STYLE('',(#469));
#469 = SURFACE_STYLE_FILL_AREA(#470);
#470 = FILL_AREA_STYLE('',(#471));
#471 = FILL_AREA_STYLE_COLOUR('',#464);
#472 = STYLED_ITEM('color',(#473),#88);
#473 = PRESENTATION_STYLE_ASSIGNMENT((#474));
#474 = SURFACE_STYLE_USAGE(.BOTH.,#475);
#475 = SURFACE_SIDE_STYLE('',(#476));
#476 = SURFACE_STYLE_FILL_AREA(#477);
#477 = FILL_AREA_STYLE('',(#478));
#478 = FILL_AREA_STYLE_COLOUR('',#464);
#479 = STYLED_ITEM('color',(#480),#123);
#480 = PRESENTATION_STYLE_ASSIGNMENT((#481));
#481 = SURFACE_STYLE_USAGE(.BOTH.,#482);
#482 = SURFACE_SIDE_STYLE('',(#483));
#483 = SURFACE_STYLE_FILL_AREA(#484);
#484 = FILL_AREA_STYLE('',(#485));
#485 = FILL_AREA_STYLE_COLOUR('',#464);
#486 = STYLED_ITEM('color',(#487),#147);
#487 = PRESENTATION_STYLE_ASSIGNMENT((#488));
#488 = SURFACE_STYLE_USAGE(.BOTH.,#489);
#489 = SURFACE_SIDE_STYLE('',(#490));
#490 = SURFACE_STYLE_FILL_AREA(#491);
#491 = FILL_AREA_STYLE('',(#492));
#492 = FILL_AREA_STYLE_COLOUR('',#464);
#493 = STYLED_ITEM('color',(#494),#252);
#494 = PRESENTATION_STYLE_ASSIGNMENT((#495));
#495 = SURFACE_STYLE_USAGE(.BOTH.,#496);
#496 = SURFACE_SIDE_STYLE('',(#497));
#497 = SURFACE_STYLE_FILL_AREA(#498);
#498 = FILL_AREA_STYLE('',(#499));
#499 = FILL_AREA_STYLE_COLOUR('',#464);
#500 = STYLED_ITEM('color',(#501),#264);
#501 = PRESENTATION_STYLE_ASSIGNMENT((#502));
#502 = SURFACE_STYLE_USAGE(.BOTH.,#503);
#503 = SURFACE_SIDE_STYLE('',(#504));
#504 = SURFACE_STYLE_FILL_AREA(#505);
#505 = FILL_AREA_STYLE('',(#506));
#506 = FILL_AREA_STYLE_COLOUR('',#507);
#507 = COLOUR_RGB('',0.690999984741,0.663999974728,0.597999989986);
#508 = STYLED_ITEM('color',(#509),#289);
#509 = PRESENTATION_STYLE_ASSIGNMENT((#510));
#510 = SURFACE_STYLE_USAGE(.BOTH.,#511);
#511 = SURFACE_SIDE_STYLE('',(#512));
#512 = SURFACE_STYLE_FILL_AREA(#513);
#513 = FILL_AREA_STYLE('',(#514));
#514 = FILL_AREA_STYLE_COLOUR('',#515);
#515 = COLOUR_RGB('',0.824000000954,0.819999992847,0.78100001812);
#516 = STYLED_ITEM('color',(#517),#308);
#517 = PRESENTATION_STYLE_ASSIGNMENT((#518));
#518 = SURFACE_STYLE_USAGE(.BOTH.,#519);
#519 = SURFACE_SIDE_STYLE('',(#520));
#520 = SURFACE_STYLE_FILL_AREA(#521);
#521 = FILL_AREA_STYLE('',(#522));
#522 = FILL_AREA_STYLE_COLOUR('',#515);
#523 = STYLED_ITEM('color',(#524),#327);
#524 = PRESENTATION_STYLE_ASSIGNMENT((#525));
#525 = SURFACE_STYLE_USAGE(.BOTH.,#526);
#526 = SURFACE_SIDE_STYLE('',(#527));
#527 = SURFACE_STYLE_FILL_AREA(#528);
#528 = FILL_AREA_STYLE('',(#529));
#529 = FILL_AREA_STYLE_COLOUR('',#515);
#530 = STYLED_ITEM('color',(#531),#346);
#531 = PRESENTATION_STYLE_ASSIGNMENT((#532));
#532 = SURFACE_STYLE_USAGE(.BOTH.,#533);
#533 = SURFACE_SIDE_STYLE('',(#534));
#534 = SURFACE_STYLE_FILL_AREA(#535);
#535 = FILL_AREA_STYLE('',(#536));
#536 = FILL_AREA_STYLE_COLOUR('',#515);
#537 = STYLED_ITEM('color',(#538),#365);
#538 = PRESENTATION_STYLE_ASSIGNMENT((#539));
#539 = SURFACE_STYLE_USAGE(.BOTH.,#540);
#540 = SURFACE_SIDE_STYLE('',(#541));
#541 = SURFACE_STYLE_FILL_AREA(#542);
#542 = FILL_AREA_STYLE('',(#543));
#543 = FILL_AREA_STYLE_COLOUR('',#515);
#544 = STYLED_ITEM('color',(#545),#384);
#545 = PRESENTATION_STYLE_ASSIGNMENT((#546));
#546 = SURFACE_STYLE_USAGE(.BOTH.,#547);
#547 = SURFACE_SIDE_STYLE('',(#548));
#548 = SURFACE_STYLE_FILL_AREA(#549);
#549 = FILL_AREA_STYLE('',(#550));
#550 = FILL_AREA_STYLE_COLOUR('',#515);
#551 = STYLED_ITEM('color',(#552),#403);
#552 = PRESENTATION_STYLE_ASSIGNMENT((#553));
#553 = SURFACE_STYLE_USAGE(.BOTH.,#554);
#554 = SURFACE_SIDE_STYLE('',(#555));
#555 = SURFACE_STYLE_FILL_AREA(#556);
#556 = FILL_AREA_STYLE('',(#557));
#557 = FILL_AREA_STYLE_COLOUR('',#515);
#558 = STYLED_ITEM('color',(#559),#422);
#559 = PRESENTATION_STYLE_ASSIGNMENT((#560));
#560 = SURFACE_STYLE_USAGE(.BOTH.,#561);
#561 = SURFACE_SIDE_STYLE('',(#562));
#562 = SURFACE_STYLE_FILL_AREA(#563);
#563 = FILL_AREA_STYLE('',(#564));
#564 = FILL_AREA_STYLE_COLOUR('',#515);
#565 = STYLED_ITEM('color',(#566),#441);
#566 = PRESENTATION_STYLE_ASSIGNMENT((#567));
#567 = SURFACE_STYLE_USAGE(.BOTH.,#568);
#568 = SURFACE_SIDE_STYLE('',(#569));
#569 = SURFACE_STYLE_FILL_AREA(#570);
#570 = FILL_AREA_STYLE('',(#571));
#571 = FILL_AREA_STYLE_COLOUR('',#507);
ENDSEC;
END-ISO-10303-21;
