ISO-10303-21;
HEADER;
FILE_DESCRIPTION(('FreeCAD Model'),'2;1');
FILE_NAME(
  'D:/KiCAD/packages3D-source/LED_THT.3dshapes\\LED_D20.0mm.step',
  '2017-11-25T21:53:10',('kicad StepUp'),('ksu MCAD'),
  'Open CASCADE STEP processor 6.8','FreeCAD','Unknown');
FILE_SCHEMA(('AUTOMOTIVE_DESIGN_CC2 { 1 2 10303 214 -1 1 5 4 }'));
ENDSEC;
DATA;
#1 = APPLICATION_PROTOCOL_DEFINITION('committee draft',
  'automotive_design',1997,#2);
#2 = APPLICATION_CONTEXT(
  'core data for automotive mechanical design processes');
#3 = SHAPE_DEFINITION_REPRESENTATION(#4,#10);
#4 = PRODUCT_DEFINITION_SHAPE('','',#5);
#5 = PRODUCT_DEFINITION('design','',#6,#9);
#6 = PRODUCT_DEFINITION_FORMATION('','',#7);
#7 = PRODUCT('LED_D20.0mm','LED_D20.0mm','',(#8));
#8 = MECHANICAL_CONTEXT('',#2,'mechanical');
#9 = PRODUCT_DEFINITION_CONTEXT('part definition',#2,'design');
#10 = SHAPE_REPRESENTATION('',(#11,#15,#472),#509);
#11 = AXIS2_PLACEMENT_3D('',#12,#13,#14);
#12 = CARTESIAN_POINT('',(0.E+000,0.E+000,0.E+000));
#13 = DIRECTION('',(0.E+000,0.E+000,1.));
#14 = DIRECTION('',(1.,0.E+000,-0.E+000));
#15 = BREP_WITH_VOIDS('',#16,(#435));
#16 = CLOSED_SHELL('',(#17,#59,#81,#157,#178,#209,#233,#255,#286,#310,
    #334,#358,#377,#394,#406,#423));
#17 = ADVANCED_FACE('',(#18),#54,.T.);
#18 = FACE_BOUND('',#19,.F.);
#19 = EDGE_LOOP('',(#20,#30,#39,#47));
#20 = ORIENTED_EDGE('',*,*,#21,.T.);
#21 = EDGE_CURVE('',#22,#24,#26,.T.);
#22 = VERTEX_POINT('',#23);
#23 = CARTESIAN_POINT('',(-8.73,-5.6789083458,4.75));
#24 = VERTEX_POINT('',#25);
#25 = CARTESIAN_POINT('',(-8.73,-5.6789083458,8.25));
#26 = LINE('',#27,#28);
#27 = CARTESIAN_POINT('',(-8.73,-5.6789083458,4.75));
#28 = VECTOR('',#29,1.);
#29 = DIRECTION('',(0.E+000,0.E+000,1.));
#30 = ORIENTED_EDGE('',*,*,#31,.T.);
#31 = EDGE_CURVE('',#24,#32,#34,.T.);
#32 = VERTEX_POINT('',#33);
#33 = CARTESIAN_POINT('',(-8.73,5.6789083458,8.25));
#34 = CIRCLE('',#35,11.5);
#35 = AXIS2_PLACEMENT_3D('',#36,#37,#38);
#36 = CARTESIAN_POINT('',(1.27,0.E+000,8.25));
#37 = DIRECTION('',(0.E+000,0.E+000,1.));
#38 = DIRECTION('',(1.,0.E+000,0.E+000));
#39 = ORIENTED_EDGE('',*,*,#40,.F.);
#40 = EDGE_CURVE('',#41,#32,#43,.T.);
#41 = VERTEX_POINT('',#42);
#42 = CARTESIAN_POINT('',(-8.73,5.6789083458,4.75));
#43 = LINE('',#44,#45);
#44 = CARTESIAN_POINT('',(-8.73,5.6789083458,4.75));
#45 = VECTOR('',#46,1.);
#46 = DIRECTION('',(0.E+000,0.E+000,1.));
#47 = ORIENTED_EDGE('',*,*,#48,.F.);
#48 = EDGE_CURVE('',#22,#41,#49,.T.);
#49 = CIRCLE('',#50,11.5);
#50 = AXIS2_PLACEMENT_3D('',#51,#52,#53);
#51 = CARTESIAN_POINT('',(1.27,0.E+000,4.75));
#52 = DIRECTION('',(0.E+000,0.E+000,1.));
#53 = DIRECTION('',(1.,0.E+000,0.E+000));
#54 = CYLINDRICAL_SURFACE('',#55,11.5);
#55 = AXIS2_PLACEMENT_3D('',#56,#57,#58);
#56 = CARTESIAN_POINT('',(1.27,0.E+000,4.75));
#57 = DIRECTION('',(-0.E+000,-0.E+000,-1.));
#58 = DIRECTION('',(1.,0.E+000,0.E+000));
#59 = ADVANCED_FACE('',(#60),#76,.T.);
#60 = FACE_BOUND('',#61,.T.);
#61 = EDGE_LOOP('',(#62,#63,#69,#70));
#62 = ORIENTED_EDGE('',*,*,#21,.T.);
#63 = ORIENTED_EDGE('',*,*,#64,.T.);
#64 = EDGE_CURVE('',#24,#32,#65,.T.);
#65 = LINE('',#66,#67);
#66 = CARTESIAN_POINT('',(-8.73,-5.6789083458,8.25));
#67 = VECTOR('',#68,1.);
#68 = DIRECTION('',(0.E+000,1.,0.E+000));
#69 = ORIENTED_EDGE('',*,*,#40,.F.);
#70 = ORIENTED_EDGE('',*,*,#71,.F.);
#71 = EDGE_CURVE('',#22,#41,#72,.T.);
#72 = LINE('',#73,#74);
#73 = CARTESIAN_POINT('',(-8.73,-5.6789083458,4.75));
#74 = VECTOR('',#75,1.);
#75 = DIRECTION('',(0.E+000,1.,0.E+000));
#76 = PLANE('',#77);
#77 = AXIS2_PLACEMENT_3D('',#78,#79,#80);
#78 = CARTESIAN_POINT('',(-8.73,-5.6789083458,4.75));
#79 = DIRECTION('',(-1.,0.E+000,0.E+000));
#80 = DIRECTION('',(0.E+000,1.,0.E+000));
#81 = ADVANCED_FACE('',(#82,#86),#152,.T.);
#82 = FACE_BOUND('',#83,.T.);
#83 = EDGE_LOOP('',(#84,#85));
#84 = ORIENTED_EDGE('',*,*,#48,.F.);
#85 = ORIENTED_EDGE('',*,*,#71,.T.);
#86 = FACE_BOUND('',#87,.T.);
#87 = EDGE_LOOP('',(#88,#98,#106,#114,#122,#130,#138,#146));
#88 = ORIENTED_EDGE('',*,*,#89,.F.);
#89 = EDGE_CURVE('',#90,#92,#94,.T.);
#90 = VERTEX_POINT('',#91);
#91 = CARTESIAN_POINT('',(-0.35,-0.35,4.75));
#92 = VERTEX_POINT('',#93);
#93 = CARTESIAN_POINT('',(-0.35,0.35,4.75));
#94 = LINE('',#95,#96);
#95 = CARTESIAN_POINT('',(-0.35,-0.35,4.75));
#96 = VECTOR('',#97,1.);
#97 = DIRECTION('',(0.E+000,1.,0.E+000));
#98 = ORIENTED_EDGE('',*,*,#99,.F.);
#99 = EDGE_CURVE('',#100,#90,#102,.T.);
#100 = VERTEX_POINT('',#101);
#101 = CARTESIAN_POINT('',(0.35,-0.35,4.75));
#102 = LINE('',#103,#104);
#103 = CARTESIAN_POINT('',(2.89,-0.35,4.75));
#104 = VECTOR('',#105,1.);
#105 = DIRECTION('',(-1.,0.E+000,0.E+000));
#106 = ORIENTED_EDGE('',*,*,#107,.F.);
#107 = EDGE_CURVE('',#108,#100,#110,.T.);
#108 = VERTEX_POINT('',#109);
#109 = CARTESIAN_POINT('',(2.19,-0.35,4.75));
#110 = LINE('',#111,#112);
#111 = CARTESIAN_POINT('',(2.89,-0.35,4.75));
#112 = VECTOR('',#113,1.);
#113 = DIRECTION('',(-1.,0.E+000,0.E+000));
#114 = ORIENTED_EDGE('',*,*,#115,.F.);
#115 = EDGE_CURVE('',#116,#108,#118,.T.);
#116 = VERTEX_POINT('',#117);
#117 = CARTESIAN_POINT('',(2.89,-0.35,4.75));
#118 = LINE('',#119,#120);
#119 = CARTESIAN_POINT('',(2.89,-0.35,4.75));
#120 = VECTOR('',#121,1.);
#121 = DIRECTION('',(-1.,0.E+000,0.E+000));
#122 = ORIENTED_EDGE('',*,*,#123,.F.);
#123 = EDGE_CURVE('',#124,#116,#126,.T.);
#124 = VERTEX_POINT('',#125);
#125 = CARTESIAN_POINT('',(2.89,0.35,4.75));
#126 = LINE('',#127,#128);
#127 = CARTESIAN_POINT('',(2.89,0.35,4.75));
#128 = VECTOR('',#129,1.);
#129 = DIRECTION('',(0.E+000,-1.,0.E+000));
#130 = ORIENTED_EDGE('',*,*,#131,.F.);
#131 = EDGE_CURVE('',#132,#124,#134,.T.);
#132 = VERTEX_POINT('',#133);
#133 = CARTESIAN_POINT('',(2.19,0.35,4.75));
#134 = LINE('',#135,#136);
#135 = CARTESIAN_POINT('',(-0.35,0.35,4.75));
#136 = VECTOR('',#137,1.);
#137 = DIRECTION('',(1.,0.E+000,0.E+000));
#138 = ORIENTED_EDGE('',*,*,#139,.F.);
#139 = EDGE_CURVE('',#140,#132,#142,.T.);
#140 = VERTEX_POINT('',#141);
#141 = CARTESIAN_POINT('',(0.35,0.35,4.75));
#142 = LINE('',#143,#144);
#143 = CARTESIAN_POINT('',(-0.35,0.35,4.75));
#144 = VECTOR('',#145,1.);
#145 = DIRECTION('',(1.,0.E+000,0.E+000));
#146 = ORIENTED_EDGE('',*,*,#147,.F.);
#147 = EDGE_CURVE('',#92,#140,#148,.T.);
#148 = LINE('',#149,#150);
#149 = CARTESIAN_POINT('',(-0.35,0.35,4.75));
#150 = VECTOR('',#151,1.);
#151 = DIRECTION('',(1.,0.E+000,0.E+000));
#152 = PLANE('',#153);
#153 = AXIS2_PLACEMENT_3D('',#154,#155,#156);
#154 = CARTESIAN_POINT('',(-8.73,-5.6789083458,4.75));
#155 = DIRECTION('',(0.E+000,0.E+000,-1.));
#156 = DIRECTION('',(-1.,0.E+000,0.E+000));
#157 = ADVANCED_FACE('',(#158,#162),#173,.F.);
#158 = FACE_BOUND('',#159,.F.);
#159 = EDGE_LOOP('',(#160,#161));
#160 = ORIENTED_EDGE('',*,*,#31,.F.);
#161 = ORIENTED_EDGE('',*,*,#64,.T.);
#162 = FACE_BOUND('',#163,.F.);
#163 = EDGE_LOOP('',(#164));
#164 = ORIENTED_EDGE('',*,*,#165,.T.);
#165 = EDGE_CURVE('',#166,#166,#168,.T.);
#166 = VERTEX_POINT('',#167);
#167 = CARTESIAN_POINT('',(11.115684333758,5.495603971895E-015,8.25));
#168 = CIRCLE('',#169,9.845684333758);
#169 = AXIS2_PLACEMENT_3D('',#170,#171,#172);
#170 = CARTESIAN_POINT('',(1.27,4.329869796038E-015,8.25));
#171 = DIRECTION('',(0.E+000,4.440892098501E-016,1.));
#172 = DIRECTION('',(1.,4.26156624554E-016,-1.892515586706E-031));
#173 = PLANE('',#174);
#174 = AXIS2_PLACEMENT_3D('',#175,#176,#177);
#175 = CARTESIAN_POINT('',(-8.73,-5.6789083458,8.25));
#176 = DIRECTION('',(0.E+000,0.E+000,-1.));
#177 = DIRECTION('',(-1.,0.E+000,0.E+000));
#178 = ADVANCED_FACE('',(#179),#204,.F.);
#179 = FACE_BOUND('',#180,.F.);
#180 = EDGE_LOOP('',(#181,#189,#197,#203));
#181 = ORIENTED_EDGE('',*,*,#182,.T.);
#182 = EDGE_CURVE('',#90,#183,#185,.T.);
#183 = VERTEX_POINT('',#184);
#184 = CARTESIAN_POINT('',(-0.35,-0.35,-1.25));
#185 = LINE('',#186,#187);
#186 = CARTESIAN_POINT('',(-0.35,-0.35,4.75));
#187 = VECTOR('',#188,1.);
#188 = DIRECTION('',(-0.E+000,-0.E+000,-1.));
#189 = ORIENTED_EDGE('',*,*,#190,.T.);
#190 = EDGE_CURVE('',#183,#191,#193,.T.);
#191 = VERTEX_POINT('',#192);
#192 = CARTESIAN_POINT('',(-0.35,0.35,-1.25));
#193 = LINE('',#194,#195);
#194 = CARTESIAN_POINT('',(-0.35,-0.35,-1.25));
#195 = VECTOR('',#196,1.);
#196 = DIRECTION('',(0.E+000,1.,0.E+000));
#197 = ORIENTED_EDGE('',*,*,#198,.F.);
#198 = EDGE_CURVE('',#92,#191,#199,.T.);
#199 = LINE('',#200,#201);
#200 = CARTESIAN_POINT('',(-0.35,0.35,4.75));
#201 = VECTOR('',#202,1.);
#202 = DIRECTION('',(-0.E+000,-0.E+000,-1.));
#203 = ORIENTED_EDGE('',*,*,#89,.F.);
#204 = PLANE('',#205);
#205 = AXIS2_PLACEMENT_3D('',#206,#207,#208);
#206 = CARTESIAN_POINT('',(-0.35,-0.35,4.75));
#207 = DIRECTION('',(1.,0.E+000,0.E+000));
#208 = DIRECTION('',(0.E+000,1.,0.E+000));
#209 = ADVANCED_FACE('',(#210),#228,.F.);
#210 = FACE_BOUND('',#211,.F.);
#211 = EDGE_LOOP('',(#212,#213,#221,#227));
#212 = ORIENTED_EDGE('',*,*,#198,.T.);
#213 = ORIENTED_EDGE('',*,*,#214,.T.);
#214 = EDGE_CURVE('',#191,#215,#217,.T.);
#215 = VERTEX_POINT('',#216);
#216 = CARTESIAN_POINT('',(0.35,0.35,-1.25));
#217 = LINE('',#218,#219);
#218 = CARTESIAN_POINT('',(-0.35,0.35,-1.25));
#219 = VECTOR('',#220,1.);
#220 = DIRECTION('',(1.,0.E+000,0.E+000));
#221 = ORIENTED_EDGE('',*,*,#222,.F.);
#222 = EDGE_CURVE('',#140,#215,#223,.T.);
#223 = LINE('',#224,#225);
#224 = CARTESIAN_POINT('',(0.35,0.35,4.75));
#225 = VECTOR('',#226,1.);
#226 = DIRECTION('',(-0.E+000,-0.E+000,-1.));
#227 = ORIENTED_EDGE('',*,*,#147,.F.);
#228 = PLANE('',#229);
#229 = AXIS2_PLACEMENT_3D('',#230,#231,#232);
#230 = CARTESIAN_POINT('',(-0.35,0.35,4.75));
#231 = DIRECTION('',(0.E+000,-1.,0.E+000));
#232 = DIRECTION('',(1.,0.E+000,0.E+000));
#233 = ADVANCED_FACE('',(#234),#250,.F.);
#234 = FACE_BOUND('',#235,.F.);
#235 = EDGE_LOOP('',(#236,#237,#243,#244));
#236 = ORIENTED_EDGE('',*,*,#139,.F.);
#237 = ORIENTED_EDGE('',*,*,#238,.T.);
#238 = EDGE_CURVE('',#140,#100,#239,.T.);
#239 = LINE('',#240,#241);
#240 = CARTESIAN_POINT('',(0.35,0.35,4.75));
#241 = VECTOR('',#242,1.);
#242 = DIRECTION('',(0.E+000,-1.,0.E+000));
#243 = ORIENTED_EDGE('',*,*,#107,.F.);
#244 = ORIENTED_EDGE('',*,*,#245,.T.);
#245 = EDGE_CURVE('',#108,#132,#246,.T.);
#246 = LINE('',#247,#248);
#247 = CARTESIAN_POINT('',(2.19,-0.35,4.75));
#248 = VECTOR('',#249,1.);
#249 = DIRECTION('',(0.E+000,1.,0.E+000));
#250 = PLANE('',#251);
#251 = AXIS2_PLACEMENT_3D('',#252,#253,#254);
#252 = CARTESIAN_POINT('',(-0.35,0.35,4.75));
#253 = DIRECTION('',(0.E+000,0.E+000,1.));
#254 = DIRECTION('',(1.,0.E+000,0.E+000));
#255 = ADVANCED_FACE('',(#256),#281,.F.);
#256 = FACE_BOUND('',#257,.F.);
#257 = EDGE_LOOP('',(#258,#266,#274,#280));
#258 = ORIENTED_EDGE('',*,*,#259,.T.);
#259 = EDGE_CURVE('',#132,#260,#262,.T.);
#260 = VERTEX_POINT('',#261);
#261 = CARTESIAN_POINT('',(2.19,0.35,-1.25));
#262 = LINE('',#263,#264);
#263 = CARTESIAN_POINT('',(2.19,0.35,4.75));
#264 = VECTOR('',#265,1.);
#265 = DIRECTION('',(-0.E+000,-0.E+000,-1.));
#266 = ORIENTED_EDGE('',*,*,#267,.T.);
#267 = EDGE_CURVE('',#260,#268,#270,.T.);
#268 = VERTEX_POINT('',#269);
#269 = CARTESIAN_POINT('',(2.89,0.35,-1.25));
#270 = LINE('',#271,#272);
#271 = CARTESIAN_POINT('',(2.19,0.35,-1.25));
#272 = VECTOR('',#273,1.);
#273 = DIRECTION('',(1.,0.E+000,0.E+000));
#274 = ORIENTED_EDGE('',*,*,#275,.F.);
#275 = EDGE_CURVE('',#124,#268,#276,.T.);
#276 = LINE('',#277,#278);
#277 = CARTESIAN_POINT('',(2.89,0.35,4.75));
#278 = VECTOR('',#279,1.);
#279 = DIRECTION('',(-0.E+000,-0.E+000,-1.));
#280 = ORIENTED_EDGE('',*,*,#131,.F.);
#281 = PLANE('',#282);
#282 = AXIS2_PLACEMENT_3D('',#283,#284,#285);
#283 = CARTESIAN_POINT('',(2.19,0.35,4.75));
#284 = DIRECTION('',(0.E+000,-1.,0.E+000));
#285 = DIRECTION('',(1.,0.E+000,0.E+000));
#286 = ADVANCED_FACE('',(#287),#305,.F.);
#287 = FACE_BOUND('',#288,.F.);
#288 = EDGE_LOOP('',(#289,#290,#298,#304));
#289 = ORIENTED_EDGE('',*,*,#275,.T.);
#290 = ORIENTED_EDGE('',*,*,#291,.T.);
#291 = EDGE_CURVE('',#268,#292,#294,.T.);
#292 = VERTEX_POINT('',#293);
#293 = CARTESIAN_POINT('',(2.89,-0.35,-1.25));
#294 = LINE('',#295,#296);
#295 = CARTESIAN_POINT('',(2.89,0.35,-1.25));
#296 = VECTOR('',#297,1.);
#297 = DIRECTION('',(0.E+000,-1.,0.E+000));
#298 = ORIENTED_EDGE('',*,*,#299,.F.);
#299 = EDGE_CURVE('',#116,#292,#300,.T.);
#300 = LINE('',#301,#302);
#301 = CARTESIAN_POINT('',(2.89,-0.35,4.75));
#302 = VECTOR('',#303,1.);
#303 = DIRECTION('',(-0.E+000,-0.E+000,-1.));
#304 = ORIENTED_EDGE('',*,*,#123,.F.);
#305 = PLANE('',#306);
#306 = AXIS2_PLACEMENT_3D('',#307,#308,#309);
#307 = CARTESIAN_POINT('',(2.89,0.35,4.75));
#308 = DIRECTION('',(-1.,0.E+000,0.E+000));
#309 = DIRECTION('',(0.E+000,-1.,0.E+000));
#310 = ADVANCED_FACE('',(#311),#329,.F.);
#311 = FACE_BOUND('',#312,.F.);
#312 = EDGE_LOOP('',(#313,#314,#322,#328));
#313 = ORIENTED_EDGE('',*,*,#299,.T.);
#314 = ORIENTED_EDGE('',*,*,#315,.T.);
#315 = EDGE_CURVE('',#292,#316,#318,.T.);
#316 = VERTEX_POINT('',#317);
#317 = CARTESIAN_POINT('',(2.19,-0.35,-1.25));
#318 = LINE('',#319,#320);
#319 = CARTESIAN_POINT('',(2.89,-0.35,-1.25));
#320 = VECTOR('',#321,1.);
#321 = DIRECTION('',(-1.,0.E+000,0.E+000));
#322 = ORIENTED_EDGE('',*,*,#323,.F.);
#323 = EDGE_CURVE('',#108,#316,#324,.T.);
#324 = LINE('',#325,#326);
#325 = CARTESIAN_POINT('',(2.19,-0.35,4.75));
#326 = VECTOR('',#327,1.);
#327 = DIRECTION('',(-0.E+000,-0.E+000,-1.));
#328 = ORIENTED_EDGE('',*,*,#115,.F.);
#329 = PLANE('',#330);
#330 = AXIS2_PLACEMENT_3D('',#331,#332,#333);
#331 = CARTESIAN_POINT('',(2.89,-0.35,4.75));
#332 = DIRECTION('',(0.E+000,1.,0.E+000));
#333 = DIRECTION('',(-1.,0.E+000,0.E+000));
#334 = ADVANCED_FACE('',(#335),#353,.F.);
#335 = FACE_BOUND('',#336,.F.);
#336 = EDGE_LOOP('',(#337,#345,#351,#352));
#337 = ORIENTED_EDGE('',*,*,#338,.T.);
#338 = EDGE_CURVE('',#100,#339,#341,.T.);
#339 = VERTEX_POINT('',#340);
#340 = CARTESIAN_POINT('',(0.35,-0.35,-1.25));
#341 = LINE('',#342,#343);
#342 = CARTESIAN_POINT('',(0.35,-0.35,4.75));
#343 = VECTOR('',#344,1.);
#344 = DIRECTION('',(-0.E+000,-0.E+000,-1.));
#345 = ORIENTED_EDGE('',*,*,#346,.T.);
#346 = EDGE_CURVE('',#339,#183,#347,.T.);
#347 = LINE('',#348,#349);
#348 = CARTESIAN_POINT('',(0.35,-0.35,-1.25));
#349 = VECTOR('',#350,1.);
#350 = DIRECTION('',(-1.,0.E+000,0.E+000));
#351 = ORIENTED_EDGE('',*,*,#182,.F.);
#352 = ORIENTED_EDGE('',*,*,#99,.F.);
#353 = PLANE('',#354);
#354 = AXIS2_PLACEMENT_3D('',#355,#356,#357);
#355 = CARTESIAN_POINT('',(0.35,-0.35,4.75));
#356 = DIRECTION('',(0.E+000,1.,0.E+000));
#357 = DIRECTION('',(-1.,0.E+000,0.E+000));
#358 = ADVANCED_FACE('',(#359),#372,.T.);
#359 = FACE_BOUND('',#360,.F.);
#360 = EDGE_LOOP('',(#361,#362,#371));
#361 = ORIENTED_EDGE('',*,*,#165,.F.);
#362 = ORIENTED_EDGE('',*,*,#363,.T.);
#363 = EDGE_CURVE('',#166,#364,#366,.T.);
#364 = VERTEX_POINT('',#365);
#365 = CARTESIAN_POINT('',(1.27,1.099120794379E-014,16.5));
#366 = CIRCLE('',#367,10.);
#367 = AXIS2_PLACEMENT_3D('',#368,#369,#370);
#368 = CARTESIAN_POINT('',(1.27,4.329869796038E-015,6.5));
#369 = DIRECTION('',(0.E+000,-1.,6.661338147751E-016));
#370 = DIRECTION('',(1.,0.E+000,0.E+000));
#371 = ORIENTED_EDGE('',*,*,#363,.F.);
#372 = SPHERICAL_SURFACE('',#373,10.);
#373 = AXIS2_PLACEMENT_3D('',#374,#375,#376);
#374 = CARTESIAN_POINT('',(1.27,4.329869796038E-015,6.5));
#375 = DIRECTION('',(0.E+000,4.440892098501E-016,1.));
#376 = DIRECTION('',(1.,4.26156624554E-016,-1.892515586706E-031));
#377 = ADVANCED_FACE('',(#378),#389,.F.);
#378 = FACE_BOUND('',#379,.T.);
#379 = EDGE_LOOP('',(#380,#381,#387,#388));
#380 = ORIENTED_EDGE('',*,*,#214,.T.);
#381 = ORIENTED_EDGE('',*,*,#382,.T.);
#382 = EDGE_CURVE('',#215,#339,#383,.T.);
#383 = LINE('',#384,#385);
#384 = CARTESIAN_POINT('',(0.35,0.35,-1.25));
#385 = VECTOR('',#386,1.);
#386 = DIRECTION('',(0.E+000,-1.,0.E+000));
#387 = ORIENTED_EDGE('',*,*,#346,.T.);
#388 = ORIENTED_EDGE('',*,*,#190,.T.);
#389 = PLANE('',#390);
#390 = AXIS2_PLACEMENT_3D('',#391,#392,#393);
#391 = CARTESIAN_POINT('',(-0.35,0.35,-1.25));
#392 = DIRECTION('',(0.E+000,0.E+000,1.));
#393 = DIRECTION('',(1.,0.E+000,0.E+000));
#394 = ADVANCED_FACE('',(#395),#401,.F.);
#395 = FACE_BOUND('',#396,.F.);
#396 = EDGE_LOOP('',(#397,#398,#399,#400));
#397 = ORIENTED_EDGE('',*,*,#222,.T.);
#398 = ORIENTED_EDGE('',*,*,#382,.T.);
#399 = ORIENTED_EDGE('',*,*,#338,.F.);
#400 = ORIENTED_EDGE('',*,*,#238,.F.);
#401 = PLANE('',#402);
#402 = AXIS2_PLACEMENT_3D('',#403,#404,#405);
#403 = CARTESIAN_POINT('',(0.35,0.35,4.75));
#404 = DIRECTION('',(-1.,0.E+000,0.E+000));
#405 = DIRECTION('',(0.E+000,-1.,0.E+000));
#406 = ADVANCED_FACE('',(#407),#418,.F.);
#407 = FACE_BOUND('',#408,.F.);
#408 = EDGE_LOOP('',(#409,#410,#416,#417));
#409 = ORIENTED_EDGE('',*,*,#323,.T.);
#410 = ORIENTED_EDGE('',*,*,#411,.T.);
#411 = EDGE_CURVE('',#316,#260,#412,.T.);
#412 = LINE('',#413,#414);
#413 = CARTESIAN_POINT('',(2.19,-0.35,-1.25));
#414 = VECTOR('',#415,1.);
#415 = DIRECTION('',(0.E+000,1.,0.E+000));
#416 = ORIENTED_EDGE('',*,*,#259,.F.);
#417 = ORIENTED_EDGE('',*,*,#245,.F.);
#418 = PLANE('',#419);
#419 = AXIS2_PLACEMENT_3D('',#420,#421,#422);
#420 = CARTESIAN_POINT('',(2.19,-0.35,4.75));
#421 = DIRECTION('',(1.,0.E+000,0.E+000));
#422 = DIRECTION('',(0.E+000,1.,0.E+000));
#423 = ADVANCED_FACE('',(#424),#430,.F.);
#424 = FACE_BOUND('',#425,.T.);
#425 = EDGE_LOOP('',(#426,#427,#428,#429));
#426 = ORIENTED_EDGE('',*,*,#267,.T.);
#427 = ORIENTED_EDGE('',*,*,#291,.T.);
#428 = ORIENTED_EDGE('',*,*,#315,.T.);
#429 = ORIENTED_EDGE('',*,*,#411,.T.);
#430 = PLANE('',#431);
#431 = AXIS2_PLACEMENT_3D('',#432,#433,#434);
#432 = CARTESIAN_POINT('',(2.19,0.35,-1.25));
#433 = DIRECTION('',(0.E+000,0.E+000,1.));
#434 = DIRECTION('',(1.,0.E+000,0.E+000));
#435 = ORIENTED_CLOSED_SHELL('',*,#436,.F.);
#436 = CLOSED_SHELL('',(#437,#463));
#437 = ADVANCED_FACE('',(#438),#458,.T.);
#438 = FACE_BOUND('',#439,.T.);
#439 = EDGE_LOOP('',(#440,#450,#457));
#440 = ORIENTED_EDGE('',*,*,#441,.T.);
#441 = EDGE_CURVE('',#442,#444,#446,.T.);
#442 = VERTEX_POINT('',#443);
#443 = CARTESIAN_POINT('',(1.27,4.996003610813E-015,7.5));
#444 = VERTEX_POINT('',#445);
#445 = CARTESIAN_POINT('',(-0.23,5.995204332938E-015,8.999999999943));
#446 = LINE('',#447,#448);
#447 = CARTESIAN_POINT('',(1.27,4.996003610813E-015,7.5));
#448 = VECTOR('',#449,1.);
#449 = DIRECTION('',(-0.7071067812,4.710277375964E-016,0.707106781173));
#450 = ORIENTED_EDGE('',*,*,#451,.F.);
#451 = EDGE_CURVE('',#444,#444,#452,.T.);
#452 = CIRCLE('',#453,1.5);
#453 = AXIS2_PLACEMENT_3D('',#454,#455,#456);
#454 = CARTESIAN_POINT('',(1.27,3.996802888625E-015,8.999999999943));
#455 = DIRECTION('',(8.75811540203E-047,4.440892098501E-016,1.));
#456 = DIRECTION('',(-1.,1.332267629542E-015,-5.91645678912E-031));
#457 = ORIENTED_EDGE('',*,*,#441,.F.);
#458 = CONICAL_SURFACE('',#459,1.793620188085E-015,0.785398163416);
#459 = AXIS2_PLACEMENT_3D('',#460,#461,#462);
#460 = CARTESIAN_POINT('',(1.27,3.330669073875E-015,7.5));
#461 = DIRECTION('',(0.E+000,4.440892098501E-016,1.));
#462 = DIRECTION('',(-1.,2.577183292899E-015,-1.144499292182E-030));
#463 = ADVANCED_FACE('',(#464),#467,.T.);
#464 = FACE_BOUND('',#465,.T.);
#465 = EDGE_LOOP('',(#466));
#466 = ORIENTED_EDGE('',*,*,#451,.T.);
#467 = PLANE('',#468);
#468 = AXIS2_PLACEMENT_3D('',#469,#470,#471);
#469 = CARTESIAN_POINT('',(1.27,3.996802888624E-015,8.999999999941));
#470 = DIRECTION('',(0.E+000,4.440892098501E-016,1.));
#471 = DIRECTION('',(-1.,1.332267629541E-015,-5.916456789119E-031));
#472 = MANIFOLD_SOLID_BREP('',#473);
#473 = CLOSED_SHELL('',(#474,#500));
#474 = ADVANCED_FACE('',(#475),#495,.T.);
#475 = FACE_BOUND('',#476,.T.);
#476 = EDGE_LOOP('',(#477,#487,#494));
#477 = ORIENTED_EDGE('',*,*,#478,.T.);
#478 = EDGE_CURVE('',#479,#481,#483,.T.);
#479 = VERTEX_POINT('',#480);
#480 = CARTESIAN_POINT('',(1.27,4.996003610813E-015,7.5));
#481 = VERTEX_POINT('',#482);
#482 = CARTESIAN_POINT('',(-0.23,5.995204332938E-015,8.999999999943));
#483 = LINE('',#484,#485);
#484 = CARTESIAN_POINT('',(1.27,4.996003610813E-015,7.5));
#485 = VECTOR('',#486,1.);
#486 = DIRECTION('',(-0.7071067812,4.710277375964E-016,0.707106781173));
#487 = ORIENTED_EDGE('',*,*,#488,.F.);
#488 = EDGE_CURVE('',#481,#481,#489,.T.);
#489 = CIRCLE('',#490,1.5);
#490 = AXIS2_PLACEMENT_3D('',#491,#492,#493);
#491 = CARTESIAN_POINT('',(1.27,3.996802888625E-015,8.999999999943));
#492 = DIRECTION('',(0.E+000,4.440892098501E-016,1.));
#493 = DIRECTION('',(-1.,1.332267629542E-015,-5.91645678912E-031));
#494 = ORIENTED_EDGE('',*,*,#478,.F.);
#495 = CONICAL_SURFACE('',#496,1.793620188085E-015,0.785398163416);
#496 = AXIS2_PLACEMENT_3D('',#497,#498,#499);
#497 = CARTESIAN_POINT('',(1.27,3.330669073875E-015,7.5));
#498 = DIRECTION('',(0.E+000,4.440892098501E-016,1.));
#499 = DIRECTION('',(-1.,2.577183292899E-015,-1.144499292182E-030));
#500 = ADVANCED_FACE('',(#501),#504,.T.);
#501 = FACE_BOUND('',#502,.T.);
#502 = EDGE_LOOP('',(#503));
#503 = ORIENTED_EDGE('',*,*,#488,.T.);
#504 = PLANE('',#505);
#505 = AXIS2_PLACEMENT_3D('',#506,#507,#508);
#506 = CARTESIAN_POINT('',(1.27,3.996802888624E-015,8.999999999941));
#507 = DIRECTION('',(0.E+000,4.440892098501E-016,1.));
#508 = DIRECTION('',(-1.,1.332267629541E-015,-5.916456789119E-031));
#509 = ( GEOMETRIC_REPRESENTATION_CONTEXT(3) 
GLOBAL_UNCERTAINTY_ASSIGNED_CONTEXT((#513)) GLOBAL_UNIT_ASSIGNED_CONTEXT
((#510,#511,#512)) REPRESENTATION_CONTEXT('Context #1',
  '3D Context with UNIT and UNCERTAINTY') );
#510 = ( LENGTH_UNIT() NAMED_UNIT(*) SI_UNIT(.MILLI.,.METRE.) );
#511 = ( NAMED_UNIT(*) PLANE_ANGLE_UNIT() SI_UNIT($,.RADIAN.) );
#512 = ( NAMED_UNIT(*) SI_UNIT($,.STERADIAN.) SOLID_ANGLE_UNIT() );
#513 = UNCERTAINTY_MEASURE_WITH_UNIT(LENGTH_MEASURE(1.E-007),#510,
  'distance_accuracy_value','confusion accuracy');
#514 = PRODUCT_TYPE('part',$,(#7));
#515 = MECHANICAL_DESIGN_GEOMETRIC_PRESENTATION_REPRESENTATION('',(#516,
    #526),#509);
#516 = STYLED_ITEM('color',(#517),#15);
#517 = PRESENTATION_STYLE_ASSIGNMENT((#518,#524));
#518 = SURFACE_STYLE_USAGE(.BOTH.,#519);
#519 = SURFACE_SIDE_STYLE('',(#520));
#520 = SURFACE_STYLE_FILL_AREA(#521);
#521 = FILL_AREA_STYLE('',(#522));
#522 = FILL_AREA_STYLE_COLOUR('',#523);
#523 = COLOUR_RGB('',0.699999988079,0.10000000149,5.000000074506E-002);
#524 = CURVE_STYLE('',#525,POSITIVE_LENGTH_MEASURE(0.1),#523);
#525 = DRAUGHTING_PRE_DEFINED_CURVE_FONT('continuous');
#526 = STYLED_ITEM('color',(#527),#472);
#527 = PRESENTATION_STYLE_ASSIGNMENT((#528,#533));
#528 = SURFACE_STYLE_USAGE(.BOTH.,#529);
#529 = SURFACE_SIDE_STYLE('',(#530));
#530 = SURFACE_STYLE_FILL_AREA(#531);
#531 = FILL_AREA_STYLE('',(#532));
#532 = FILL_AREA_STYLE_COLOUR('',#523);
#533 = CURVE_STYLE('',#534,POSITIVE_LENGTH_MEASURE(0.1),#523);
#534 = DRAUGHTING_PRE_DEFINED_CURVE_FONT('continuous');
ENDSEC;
END-ISO-10303-21;
